Akor Tab Söz Çeviri Anasayfası
Akor|Tab|Söz|Nota Arşivi
Gitar Akorları | Tab,Söz ve Nota Anasayfası | En Yeni Şarkılar | En Popüler Şarkılar | Akor Cetveli

Bilgiler
 
Seslendiren ve Şarkı: ACDC - Rock N Roll Train
Biçim: Bass Tab, Bass Gitar Tab - INTRO
Tarih: 24 Mart 2012 Cumartesi
Gönderen: ilhangin
Toplam Okuyan: 2.807 kişi
Bu Ay Okuyan: 40 kişi
Bu Hafta Okuyan: 4 kişi
 
Beğendiniz mi? Rock N Roll Train Bass Tab sayfasını Şimdi paylaşın:

ACDC - Rock N Roll Train - Bass Tab


Puanlama:
 (0 kişi)


Metin boyutu: ( + Büyült ) ( - Küçült)   
                    INTRO
----------------0-0-0--------------------------
----0---0--0----------4-4----0-0--0------------
--0---0------------------------------0-0-0--------             X3
-----------------------------------------------

VEYA

--------------------------------------------------------------------
--------------------5-5-5-4-4---------------------------------------
---5---5---5------------------5-5--5------------------5---5---5-----
-5---5-------------------------------5-5-5----------5---5-----------


--------------------------------------------------------------------
---5-5-5-5--------------------------------------------5-5-5-5-4-4---
-----------5-5-5--5------------------5---5---5--------------------5-
--------------------5-5-5----------5---5---------------------------

 
----------------------------------
----------------------------------
-5--------------------------------
---5-5-5--------------------------



Rock N Roll Train Bass Tab, AkorMerkezi.com'da yayınlanmıştır.
http://www.akormerkezi.com


İçerik Kısa Linki:


Beğendiniz mi? Rock N Roll Train Bass Tab sayfasını Şimdi paylaşın:


Rock N Roll Train Bass Tab için Komoçotoko'dan Gelenler
Aramalar: TRATUN PASU İZLE, rock n roll tab, rock n roll train tab, rocknrol roll train akor, gitarda rock n roll, rach ın roll gitar calma, rock akor, gitar rock n roll, rock n roll bass tab, acdc rock'n roll train
ACDC - Rock N Roll Train için Kullanıcı Görüşleri

Henüz buraya yazan çizen olmamış. Yorum yapmak için buraya tıklayabilirsiniz.


Siz de Görüş Bildirin

Yorum yazma alanı Akor Merkezi üyelerine özel bir bölümdür. (Giriş Yap / Üye Ol / Şifremi Hatırlat)


Anket
guitarhero1 soruyor:
Emre Aydın'ın En Rock Şarkısı?













Sonuçlar | Sonuçlar & Yorumlar
Yeni Anket | Anketler



AkorMerkezi.com © 2022
Gizlilik Politikası - Kullanım Koşulları - Kurallar - Son Yorumlar - Rastgele

GitarAkor.com kolonisidir. Derleme 0,03 saniye.