Akor Tab Söz Çeviri Anasayfası
Akor|Tab|Söz|Nota Arşivi
Gitar Akorları | Tab,Söz ve Nota Anasayfası | En Yeni Şarkılar | En Popüler Şarkılar | Akor Cetveli

Bilgiler
 
Seslendiren ve Şarkı: Ahmet Kanneci - Aygız
Biçim: TAB - HİÇBİRİ
Tarih: 21 Kasım 2018 Çarşamba
Gönderen: doguhan011
Toplam Okuyan: 0 kişi
Bu Ay Okuyan: 0 kişi
Bu Hafta Okuyan: 0 kişi
 
Beğendiniz mi? Aygız Tab sayfasını Şimdi paylaşın:

Ahmet Kanneci - Aygız - Tab


Puanlama:
 (0 kişi)


Metin boyutu: ( + Büyült ) ( - Küçült)   
E|-----0-0--0---3-2-0----3-2-0---5--4--------7----7-
B|---0-------------------------------------0-----0--
G|---------------------------------------0------0--- 2x
D|-------------------------------------0------------
A|--------------------------------------------------
E|-0------------------------------------------------
  Meni  attın  ay  gız  ay  gız   ataşa



E|-7-7-6-7---8-7-6--8-7-6---8-7-9-------------------
B|--------------------------------------------------
G|--------------------------------------------------
D|--------------------------------------------------
A|--------------------------------------------------
E|--------------------------------------------------
  Beklemektir eşgin daim peşe


E|---7--7-7--7---5-7-8-7-5---------5----5-----------
B|--------------------------8-7-8----8--------------
G|--------------------------------------------------
D|--------------------------------------------------
A|--------------------------------------------------
E|-0------------------------------------------------
  Atacağdın   meni sevdin söyle bes niçin 


E|5--5-5--5----5-7-5--------------------------------
B|----------8-------8-7-5-7-8-------7-8-------------
G|--------------------------------------------------
D|--------------------------------------------------
A|--------------------------------------------------
E|--------------------------------------------------
  Doldur eşki şerbet kimin ver içim



E|--------------------5----------------------5-----
B|-8--8--8--7-5---5-7---8-7-7--5-------5-7-8-------
G|--------------8------------8----------------- ---
D|-------------------------------------------------
A|-------------------------------------------------
E|-------------------------------------------------
  Söyle söyle sene beyle n'oldu yar

E|-----------------5-------------------------------
B|-8-8-8-7-5---5-7---8-7-7---5---------------------
G|-----------8-------------8-----------------------
D|-------------------------------------------------
A|-------------------------------------------------
E|-------------------------------------------------
  Söyle söyle sene beyle n'oldu yar


 ''Beklemektir eşgin daim peşe'' bölümünde hata olabilir, elimden o kadarı geldi. Başka alternatif bulamadım.
Aygız Tab, AkorMerkezi.com'da yayınlanmıştır.
http://www.akormerkezi.com


İçerik Kısa Linki:


Beğendiniz mi? Aygız Tab sayfasını Şimdi paylaşın:


Aygız Tab için Komoçotoko'dan Gelenler
Ahmet Kanneci - Aygız için Kullanıcı Görüşleri

Henüz buraya yazan çizen olmamış. Yorum yapmak için buraya tıklayabilirsiniz.


Siz de Görüş Bildirin

Yorum yazma alanı Akor Merkezi üyelerine özel bir bölümdür. (Giriş Yap / Üye Ol / Şifremi Hatırlat)




Anket
omer08 soruyor:
murat yılmaz yıldırım (düş sokağı sakinleri solisti) nin sesi size neyi ifade eder









Sonuçlar | Sonuçlar & Yorumlar
Yeni Anket | Anketler




Radyo Dinle
AkorMerkezi.com © 2018
Gizlilik Politikası - Kullanım Koşulları - Kurallar - Son Yorumlar - Rastgele

GitarAkor.com kolonisidir. Derleme 0,01 saniye.