Akor Tab Söz Çeviri Anasayfası
Akor|Tab|Söz|Nota Arşivi
Gitar Akorları | Tab,Söz ve Nota Anasayfası | En Yeni Şarkılar | En Popüler Şarkılar | Akor Cetveli

Bilgiler
 
Seslendiren ve Şarkı: Ahmet Kaya - Nereden Bileceksiniz
Biçim: TAB - HİÇBİRİ
Tarih: 10 Ağustos 2012 Cuma
Gönderen: eko3742
Toplam Okuyan: 17.656 kişi
Bu Ay Okuyan: 444 kişi
Bu Hafta Okuyan: 48 kişi
 
Beğendiniz mi? Nereden Bileceksiniz Tab sayfasını Şimdi paylaşın:

Ahmet Kaya - Nereden Bileceksiniz - Tab


Puanlama:
 (43 kişi)

Nereden Bileceksiniz şarkısının diğer versiyonlarına bakın >>

Metin boyutu: ( + Büyült ) ( - Küçült)   
e--110--110-0-00---00-------------------
b-3---33---3-1--311--313-331--331-1-11--
g-----------------------3---33---3-2--32                
d---------------------------------------
a---------------------------------------
e---------------------------------------

e------------------0----
b--1-------31-1-1---3131
g-2-32323----3-3-------- 
d---------------------
a---------------------
e---------------------

e-----0-------------------
b-3-33-31-333131-1--31---1
g---------------3-33--332-
d-------------------------
a-------------------------
e-------------------------

e-----0----------------------------------0---
b---13-33--------1----------1311---111113-331
g-23-------222223-332--33333----3------------
d--------------------------------------------
a--------------------------------------------
e--------------------------------------------


durakları yazmadım kendiniz cıkarın onları da 
™Emeğe Saygı™
Nereden Bileceksiniz Tab, AkorMerkezi.com'da yayınlanmıştır.
http://www.akormerkezi.com


İçerik Kısa Linki:


Beğendiniz mi? Nereden Bileceksiniz Tab sayfasını Şimdi paylaşın:


Nereden Bileceksiniz şarkısı için amatör kayıtları dinleyin: (Siz de Ekleyin)

Nereden Bileceksiniz Tab için Komoçotoko'dan Gelenler
Aramalar: ahmet kaya nerden bikeceksiniz gitar tab, ahmet kaya neyden bıleceksınz tab, ahmet kaya nerden tab, siz benim neler cektigimi nerden bileceksiniz tab, nerden bileceksini tab, ahmet kaya nereden bileceksiniz akor, ahmet kaya nerden bilecekseniz tab, nerden bileceksiniz akor ve tab, nerden bileceksiniz gita, ahmet kaya nerden bileceksiniz tab
Ahmet Kaya - Nereden Bileceksiniz için Kullanıcı Görüşleri

Ya durakları yazıp atabilecek bi babayiğit yok mu?


Bu Yoruma Cevap Ver
FahriElm | 7 Mart 2015 Cumartesi 17:58
şarkıyı dinleyerek cal durakları cıkarırsın :D


Bu Yoruma Cevap Ver
eko3742 | 27 Ağustos 2012 Pazartesi 19:21
eline sağlık keşke duraklarıda yazaymıştın ya =))


Bu Yoruma Cevap Ver
djnukro | 23 Ağustos 2012 Perşembe 17:45


Siz de Görüş Bildirin

Yorum yazma alanı Akor Merkezi üyelerine özel bir bölümdür. (Giriş Yap / Üye Ol / Şifremi Hatırlat)


Anket
Kutluhn soruyor:
Elektrogitar sesi mi akustik gitar sesi mi?







Sonuçlar | Sonuçlar & Yorumlar
Yeni Anket | Anketler



AkorMerkezi.com © 2022
Gizlilik Politikası - Kullanım Koşulları - Kurallar - Son Yorumlar - Rastgele

GitarAkor.com kolonisidir. Derleme 0,03 saniye.