Akor Tab Söz Çeviri Anasayfası
Akor|Tab|Söz|Nota Arşivi
Gitar Akorları | Tab,Söz ve Nota Anasayfası | En Yeni Şarkılar | En Popüler Şarkılar | Akor Cetveli

Bilgiler
 
Seslendiren ve Şarkı: Ahmet Kaya - Şafak Türküsü
Biçim: TAB - FULL
Tarih: 26 Ocak 2013 Cumartesi
Gönderen: alpozal
Toplam Okuyan: 23.254 kişi
Bu Ay Okuyan: 940 kişi
Bu Hafta Okuyan: 74 kişi
 
Beğendiniz mi? Şafak Türküsü Tab sayfasını Şimdi paylaşın:

Ahmet Kaya - Şafak Türküsü - Tab

  (versiyon 6)
Puanlama:
 (84 kişi)

Şafak Türküsü şarkısının diğer versiyonlarına bakın >>

Metin boyutu: ( + Büyült ) ( - Küçült)   
İntro:

E|-0-2-3-2-0-3-2-0---2-0-----------0-----------2-2-2-|    )
B|-----------------3-----3-1-0-1-1---3-1-0-0-0-------|    )
G|---------------------------------------------------|    )
D|---------------------------------------------------|    )
                                                          )x2
E|-0-2-3-2-0-3-2-0---2-0-----------0-----------------|    )
B|-----------------3-----3-1-0-1-1---3-1-0-0-0-------|    )
G|---------------------------------------------------|    )
D|---------------------------------------------------|    )

başlangıç sözleri:

E|-0-2-2-2-2-2-2-2-7-5-3-3-0-2-2-7-5-3-3-0-2---------|    )
B|---------------------------------------------------|    )
G|---------------------------------------------------|    )x2
D|---------------------------------------------------|    )
A|---------------------------------------------------|    )

nakarat:

E|-0-2-3-2-0-3-2-0---2-0-----------0-----------2-2-2-|    )
B|-----------------3-----3-1-0-1-1---3-1-0-0-0-------|    )
G|---------------------------------------------------|    )
D|---------------------------------------------------|    )
                                                          )x2
E|-0-2-3-2-0-3-2-0---2-0-----------0-----------------|    )
B|-----------------3-----3-1-0-1-1---3-1-0-0-0-0-0---|    )
G|---------------------------------------------------|    )
D|---------------------------------------------------|    )


NOT:

Şarkı sözlerinin hece sayılarına yakın yazdım.

Siz bazı yerlerde fazladan tıngırdatabilirsiniz daha hoş oluyor..




Şafak Türküsü Tab, AkorMerkezi.com'da yayınlanmıştır.
http://www.akormerkezi.com


İçerik Kısa Linki:


Beğendiniz mi? Şafak Türküsü Tab sayfasını Şimdi paylaşın:


Şafak Türküsü şarkısı için amatör kayıtları dinleyin: (Siz de Ekleyin)

Şafak Türküsü Tab için Komoçotoko'dan Gelenler
Aramalar: safak turkusu gitar tabs, şafak şarkısısının yazarı, safak türküsü ver6 tab, şafak türküsü akor ver, ahmet kaya saçlarına yıldız düşmüş tab, safak turkusu full nota, ahmet şafak tab, ŞAFAK TÜRKÜSÜ PAYLAŞ, safak türküsü calma gitar, ahmet kaya şafak türküsü gitar akorları
Ahmet Kaya - Şafak Türküsü için Kullanıcı Görüşleri

10 numara olmuş eline sağlık kardeş


Bu Yoruma Cevap Ver
gitarist_john | 23 Nisan 2015 Perşembe 21:04
cidden çok iyi :D


Bu Yoruma Cevap Ver
FahriElm | 14 Mart 2015 Cumartesi 21:20
helal olsun kardeşim çok beğendim


Bu Yoruma Cevap Ver
Oqİ_26 | 29 Mart 2014 Cumartesi 19:30
1 oy veren arkadaş gitarı eline alıp çaldı mı acaba? ayıp yaptığınız...


Bu Yoruma Cevap Ver
alpozal | 31 Ocak 2013 Perşembe 12:54


Siz de Görüş Bildirin

Yorum yazma alanı Akor Merkezi üyelerine özel bir bölümdür. (Giriş Yap / Üye Ol / Şifremi Hatırlat)


Anket
zeynoka soruyor:
Size Hangisi???













Sonuçlar | Sonuçlar & Yorumlar
Yeni Anket | Anketler



AkorMerkezi.com © 2022
Gizlilik Politikası - Kullanım Koşulları - Kurallar - Son Yorumlar - Rastgele

GitarAkor.com kolonisidir. Derleme 0,05 saniye.