Akor Tab Söz Çeviri Anasayfası
Akor|Tab|Söz|Nota Arşivi
Gitar Akorları | Tab,Söz ve Nota Anasayfası | En Yeni Şarkılar | En Popüler Şarkılar | Akor Cetveli

Bilgiler
 
Seslendiren ve Şarkı: Amir Ateş - Bir Kızıl Goncaya Benzer Dudağın
Biçim: TAB - HİÇBİRİ
Tarih: 20 Kasım 2018 Salı
Gönderen: argimax
Toplam Okuyan: 0 kişi
Bu Ay Okuyan: 0 kişi
Bu Hafta Okuyan: 0 kişi
 
Beğendiniz mi? Bir Kızıl Goncaya Benzer Dudağın Tab sayfasını Şimdi paylaşın:

Amir Ateş - Bir Kızıl Goncaya Benzer Dudağın - Tab

  (versiyon 2)
Puanlama:
 (0 kişi)

Bir Kızıl Goncaya Benzer Dudağın şarkısının diğer versiyonlarına bakın >>

Metin boyutu: ( + Büyült ) ( - Küçült)   
BİR KIZIL GONCAYA BENZER DUDAĞIN
Stave 1:
E|------------------------------------------------------------------------------------------------------------
B|------------------------------------------------------------------------------------------------------------
G|-0-2-2-2------2-------2--0-0-0------0-------0----------2-0-2--------------------------------------------0-2-
D|--------3-0-3---3-0-3----------2---2---2---2----3-3-2-3-------3-0-2-2-3-0-2---0-------------------0-2-3-----
A|---------------------------------3-------3----------------------------------3---1-3-0-1--0--0--0------------
E|----------------------------------------------------------------------------------------3--3--3-------------

Stave 2:
E|------------------------------------------------------------------------------------------------------------
B|------------------------------------------------------------------------------------------------------------
G|-0-2-2-2-0-2-3-3-2-2-2-0-0-2-0---------------0----------------------2--0-3-2-0------------------------------
D|-------------------------------3-3-2-3---2-3---2-3-3-2-0------2-3-3-------------3-2-0-2--3-3-2-2-2-0--------
A|---------------------------------------------------------3-------------------------------------------3-1-0--
E|------------------------------------------------------------------------------------------------------------

Stave 3:
E|------------------------------------------------------------------------------------------------------------
B|------------------------------------------------------------------------------------------------------------
G|-0-2-2-2-0-2-3-3-2-2-2-0-0-2-0----------------0---------------------2--0-3-2-0--------------------0---------
D|-------------------------------3-3-2-3----2-3---2-3-3-2-0------2-3-3-----------3-2-0-2--3-3-2-2-2---3-2-----
A|----------------------------------------------------------3-------------------------------------------------
E|------------------------------------------------------------------------------------------------------------

Stave 4:
E|------------------------------------------------------------------------------------------------------------
B|------------------------------------------------------------------------------------------------------------
G|------0-2---2-0------2---0-2-0---------------------------------------------------------------------0--------
D|-0-2-3----------3-2-0---------3-2-0---0------------------------------0---1-0---------------------2---3-2----
A|------------------------------------3---3-1-1-0-1-0-1-3-0-1----1-1-1---3-----3-1-0---0---1-1-0-0------------
E|-----------------------------------------------------------------------------------3------------------------

Stave 5:
E|------------------------------------------------------------------------------------------------------------
B|------------------------------------------------------------------------------------------------------------
G|------0-2---2-0------2---0-2-0------------------------------------------------------------------------------
D|-0-2-3----------3-2-0---------3-2-0---0-------------------------------0---1-0-------------------------------
A|------------------------------------3---3-1-1-0-1-0-1-3-0-1----1-1-1----3-----3-1-0---0---1-1-0-0---0--1--0-
E|------------------------------------------------------------------------------------3-------------3------3--

Bir Kızıl Goncaya Benzer Dudağın Tab, AkorMerkezi.com'da yayınlanmıştır.
http://www.akormerkezi.com


İçerik Kısa Linki:


Beğendiniz mi? Bir Kızıl Goncaya Benzer Dudağın Tab sayfasını Şimdi paylaşın:


Bir Kızıl Goncaya Benzer Dudağın Tab için Komoçotoko'dan Gelenler
Amir Ateş - Bir Kızıl Goncaya Benzer Dudağın için Kullanıcı Görüşleri

Henüz buraya yazan çizen olmamış. Yorum yapmak için buraya tıklayabilirsiniz.


Siz de Görüş Bildirin

Yorum yazma alanı Akor Merkezi üyelerine özel bir bölümdür. (Giriş Yap / Üye Ol / Şifremi Hatırlat)


Anket
UrbanGuitar soruyor:
En İyi Elektro Akustik Gitar Yapan Marka?









Sonuçlar | Sonuçlar & Yorumlar
Yeni Anket | Anketler



AkorMerkezi.com © 2022
Gizlilik Politikası - Kullanım Koşulları - Kurallar - Son Yorumlar - Rastgele

GitarAkor.com kolonisidir. Derleme 0,03 saniye.