Akor Tab Söz Çeviri Anasayfası
Akor|Tab|Söz|Nota Arşivi
Gitar Akorları | Tab,Söz ve Nota Anasayfası | En Yeni Şarkılar | En Popüler Şarkılar | Akor Cetveli

Bilgiler
 
Seslendiren ve Şarkı: Anonim Türküler - Çanakkale Türküsü
Biçim: TAB - FULL
Tarih: 21 Kasım 2018 Çarşamba
Gönderen: deligitaristt
Toplam Okuyan: 0 kişi
Bu Ay Okuyan: 0 kişi
Bu Hafta Okuyan: 0 kişi
 
Beğendiniz mi? Çanakkale Türküsü Tab sayfasını Şimdi paylaşın:

Anonim Türküler - Çanakkale Türküsü - Tab

  (versiyon 7)
Puanlama:
 (1 kişi)

Çanakkale Türküsü şarkısının diğer versiyonlarına bakın >>

Metin boyutu: ( + Büyült ) ( - Küçült)   
E------------7-6-7-4-2-4-4-6-7-4-4-2-2-2-2-2-------------------------------------------------------------
B--------------------------------------0-0-0-------------------------------------------------------------
G-3-5-5-5-5----------------------------------------------------------------------------------------------  x2
D--------------------------------------------------------------------------------------------------------
A--------------------------------------------------------------------------------------------------------
E--------------------------------------------------------------------------------------------------------




E----------4-4-4-4-4-2-----------------------------------------------------------------------------------
B--------------------------7-8-7-5-4-5-4-5-7-5-8-7-5-4-2-0-2-4-5-7-5-4-5-4-4-2-2-------------------------
G--------------------------------------------------------------------------------------------------------
D--------------------------------------------------------------------------------------------------------
A--------------------------------------------------------------------------------------------------------
E--------------------------------------------------------------------------------------------------------
Çanakkale Türküsü Tab, AkorMerkezi.com'da yayınlanmıştır.
http://www.akormerkezi.com


İçerik Kısa Linki:


Beğendiniz mi? Çanakkale Türküsü Tab sayfasını Şimdi paylaşın:



Çanakkale Türküsü Tab için Komoçotoko'dan Gelenler
Anonim Türküler - Çanakkale Türküsü için Kullanıcı Görüşleri

Henüz buraya yazan çizen olmamış. Yorum yapmak için buraya tıklayabilirsiniz.


Siz de Görüş Bildirin

Yorum yazma alanı Akor Merkezi üyelerine özel bir bölümdür. (Giriş Yap / Üye Ol / Şifremi Hatırlat)




Anket
toprağın sesi soruyor:
nota biliyormusunuz ?







Sonuçlar | Sonuçlar & Yorumlar
Yeni Anket | Anketler




Radyo Dinle
AkorMerkezi.com © 2018
Gizlilik Politikası - Kullanım Koşulları - Kurallar - Son Yorumlar - Rastgele

GitarAkor.com kolonisidir. Derleme 0,05 saniye.