Akor Tab Söz Çeviri Anasayfası
Akor|Tab|Söz|Nota Arşivi
Gitar Akorları | Tab,Söz ve Nota Anasayfası | En Yeni Şarkılar | En Popüler Şarkılar | Akor Cetveli

Bilgiler
 
Seslendiren ve Şarkı: Aşık Veysel - Uzun İnce Bir Yoldayım
Biçim: TAB - FULL
Tarih: 3 Ağustos 2012 Cuma
Gönderen: generalkayseri
Toplam Okuyan: 13.496 kişi
Bu Ay Okuyan: 476 kişi
Bu Hafta Okuyan: 53 kişi
 
Beğendiniz mi? Uzun İnce Bir Yoldayım Tab sayfasını Şimdi paylaşın:

Aşık Veysel - Uzun İnce Bir Yoldayım - Tab

  (versiyon 7)
Puanlama:
 (38 kişi)

Uzun İnce Bir Yoldayım şarkısının diğer versiyonlarına bakın >>

Metin boyutu: ( + Büyült ) ( - Küçült)   
  AŞIK VEYSEL-UZUN İNCE BİR YOLDAYIM
   
   bu kısım şarkının ana kısımı ve aradaki solosu
e--------------------------------------------------------}
b--------------------------------------------------------}
g----0-0-----------------------2-0-2---0-----------------}  x 2 (1.part)
d--3-----3-2-0-3-2-0-0-0-------------3---3-2-0-3-2-0-0-0-}
a--------------------------------------------------------}
E--------------------------------------------------------}

  bu kısım ise nakarat bölümleri

e--------------------------------------------------------}
b-0-1-1-1---1-0---1-1-0--------1-------------------------}
g---------------2----------------2-0-2-2----2-0-0---2-0--}
d-------------------------------------------------3------} aşağıdan devam ediyoruz 
a--------------------------------------------------------}   
E--------------------------------------------------------}

e--------------------------------------------------------}
b--------------------------------------------------------}
g--0-------0---------------------------------------------}
d----3-2-0---2-3-----3-2-2-0-3-2-----2-0-0----2-0----0---}  x2(yukarıyla beraber 2.part)
a------------------------------------------3-------------}
E--------------------------------------------------------}


ilk tabım yanlış olduğunu düşünmüyorum ama yinede yorumlarını bekliyorum inşallah hatam olmamıştır :)
Uzun İnce Bir Yoldayım Tab, AkorMerkezi.com'da yayınlanmıştır.
http://www.akormerkezi.com


İçerik Kısa Linki:


Beğendiniz mi? Uzun İnce Bir Yoldayım Tab sayfasını Şimdi paylaşın:



Uzun İnce Bir Yoldayım Tab için Komoçotoko'dan Gelenler
Aramalar: Uzun İnce Bir Yoldayım - TAB, uzun ince bir yoldayım nakaratı, uzun ince bir yoldayım tab ver6, uzun ince tab akor, uzun ince bir yoldayım söz nakaratlı, uzun ince bi yoldayim tab, Uzun.ince.bir.yoldayim.gitar.tab, uzun ince bir yoldayım nakaratları, tab uzun ınce bır yoldayım, akor merkezi uzun ince bir yoldayım tab
Aşık Veysel - Uzun İnce Bir Yoldayım için Kullanıcı Görüşleri

çok güzel olmuş 10 numara 5 yıldız :) devamını bekleriz... :D


Bu Yoruma Cevap Ver
karadayı38 | 3 Ağustos 2014 Pazar 21:41
Gerçekten güzel eline sağlık :)


Bu Yoruma Cevap Ver
yasintiryaki | 18 Eylül 2013 Çarşamba 18:34
çok kaliteli olmuş eline sağlık :)


Bu Yoruma Cevap Ver
pirüvat45 | 9 Temmuz 2013 Salı 23:51
bir kaç yer dışında süper kardeşim devamını bekleriz:-)


Bu Yoruma Cevap Ver
casperr23 | 17 Eylül 2012 Pazartesi 22:24


Siz de Görüş Bildirin

Yorum yazma alanı Akor Merkezi üyelerine özel bir bölümdür. (Giriş Yap / Üye Ol / Şifremi Hatırlat)


Anket
mert rock soruyor:
Sizce Türkiyedeki En İyi Rock Sanatçılarından Biri?













Sonuçlar | Sonuçlar & Yorumlar
Yeni Anket | Anketler



AkorMerkezi.com © 2022
Gizlilik Politikası - Kullanım Koşulları - Kurallar - Son Yorumlar - Rastgele

GitarAkor.com kolonisidir. Derleme 0,05 saniye.