Akor Tab Söz Çeviri Anasayfası
Akor|Tab|Söz|Nota Arşivi
Gitar Akorları | Tab,Söz ve Nota Anasayfası | En Yeni Şarkılar | En Popüler Şarkılar | Akor Cetveli

Bilgiler
 
Seslendiren ve Şarkı: Athena - Serseri Mayın
Biçim: TAB - HİÇBİRİ
Tarih: 15 Mart 2013 Cuma
Gönderen: kzltn-8
Toplam Okuyan: 5.700 kişi
Bu Ay Okuyan: 249 kişi
Bu Hafta Okuyan: 19 kişi
 
Beğendiniz mi? Serseri Mayın Tab sayfasını Şimdi paylaşın:

Athena - Serseri Mayın - Tab

  (versiyon 3)
Puanlama:
 (1 kişi)

Serseri Mayın şarkısının diğer versiyonlarına bakın >>

Metin boyutu: ( + Büyült ) ( - Küçült)   
İNTRO 
e------------------------------------------------------
b------------------------------------------------------
g------------------------------------------------------
d------------------------------------------------------
a---------------------3--------------------------------
E-5-5-5-0-0-3-4-5-5-5---5-3---5-5-5-0-0-3-4-5-5-5-3-2-0

e-------------------------------------------------------
b-------------------------------------------------------
g---------------------------------------------7-x-7-----
d-------------------------------------------------------
a---------------------3-----------------------5-x-5-----
E-5-5-5-0-0-3-4-5-5-5---5-3---5-5-5-0-0-3-4-5-----------

SOLO
e-1/5-5-5-5-5-5--1/5-5-5-5-5-8-7-5-5-5-5--4-5-4-5-4----
b-1/5-5-5-5-5-5--1/5-5-5-5-5-8-7-5-5-5-5--4-5-4-5-4----
g---------------------------------------------------5-4

e-1/5-5-5-5-5-5--1/5-5-5-5-7-8-7-8-7-8-10-7-8-5--------
b-1/5-5-5-5-5-5--1/5-5-5-5-7-8-7-8-7-8-10-7-8-5--------

not: soloda en alttaki mi teli ile si telini beraber çalıyoruz
Serseri Mayın Tab, AkorMerkezi.com'da yayınlanmıştır.
http://www.akormerkezi.com


İçerik Kısa Linki:


Beğendiniz mi? Serseri Mayın Tab sayfasını Şimdi paylaşın:


Serseri Mayın Tab için Komoçotoko'dan Gelenler
Aramalar: serseri mayın, athena serseri mayın akor tab, serseri mayin intro, seraeri mayin tab, athena - serseri mayın, athena tab, athena-serseri mayın, athena serseri may03n, serseri mayın athena tab, athena serseri mayın
Athena - Serseri Mayın için Kullanıcı Görüşleri

Henüz buraya yazan çizen olmamış. Yorum yapmak için buraya tıklayabilirsiniz.


Siz de Görüş Bildirin

Yorum yazma alanı Akor Merkezi üyelerine özel bir bölümdür. (Giriş Yap / Üye Ol / Şifremi Hatırlat)


Anket
jeyjey20 soruyor:
En iyi AKUSTİK GİTAR sizce hangisi?













Sonuçlar | Sonuçlar & Yorumlar
Yeni Anket | Anketler




Radyo Dinle
AkorMerkezi.com © 2019
Gizlilik Politikası - Kullanım Koşulları - Kurallar - Son Yorumlar - Rastgele

GitarAkor.com kolonisidir. Derleme 0,03 saniye.