Akor Tab Söz Çeviri Anasayfası
Akor|Tab|Söz|Nota Arşivi
Gitar Akorları | Tab,Söz ve Nota Anasayfası | En Yeni Şarkılar | En Popüler Şarkılar | Akor Cetveli

Bilgiler
 
Seslendiren ve Şarkı: Barış Manço - Arkadaşım Eşek
Biçim: TAB - HİÇBİRİ
Tarih: 20 Kasım 2018 Salı
Gönderen: kertelik
Toplam Okuyan: 0 kişi
Bu Ay Okuyan: 0 kişi
Bu Hafta Okuyan: 0 kişi
 
Beğendiniz mi? Arkadaşım Eşek Tab sayfasını Şimdi paylaşın:

Barış Manço - Arkadaşım Eşek - Tab


Puanlama:
 (5 kişi)


Metin boyutu: ( + Büyült ) ( - Küçült)   
E|-----0-0-1-1-0-----1-1-0----------------------|
B|---------------3-3----------------------------|   
G|-2-2------------------------------------------|


E|-----1-1-0------------------------------------|
B|-3-3-------3-1---0-0-1-0----------------------|   
G|-------------------------2--------------------|


E|--5-5-3-3-1-1------1-1-0----------------------|
B|---------------3-3----------------------------|
G|----------------------------------------------|


E|-----1-1-0------------------------------------|
B|-3-3-------3-1---0-0-1-0----------------------|
G|-------------------------2--------------------|


E|----------------------------------------------|
B|---0-1-0------0-1-0------0-1-0----------------|
G|-2-------0--2-------0--2-------0--2-----------|










Arkadaşım Eşek Tab, AkorMerkezi.com'da yayınlanmıştır.
http://www.akormerkezi.com


İçerik Kısa Linki:


Beğendiniz mi? Arkadaşım Eşek Tab sayfasını Şimdi paylaşın:


Arkadaşım Eşek Tab için Komoçotoko'dan Gelenler
Barış Manço - Arkadaşım Eşek için Kullanıcı Görüşleri

Henüz buraya yazan çizen olmamış. Yorum yapmak için buraya tıklayabilirsiniz.


Siz de Görüş Bildirin

Yorum yazma alanı Akor Merkezi üyelerine özel bir bölümdür. (Giriş Yap / Üye Ol / Şifremi Hatırlat)


Anket
power_dark soruyor:
Sizce hangisi daha iyi?











Sonuçlar | Sonuçlar & Yorumlar
Yeni Anket | Anketler



AkorMerkezi.com © 2022
Gizlilik Politikası - Kullanım Koşulları - Kurallar - Son Yorumlar - Rastgele

GitarAkor.com kolonisidir. Derleme 0,03 saniye.