Akor Tab Söz Çeviri Anasayfası
Akor|Tab|Söz|Nota Arşivi
Gitar Akorları | Tab,Söz ve Nota Anasayfası | En Yeni Şarkılar | En Popüler Şarkılar | Akor Cetveli

Bilgiler
 
Seslendiren ve Şarkı: Barış Akarsu - Öyle Bir Geçer Zaman Ki
Biçim: TAB - SOLO
Tarih: 20 Kasım 2018 Salı
Gönderen: Shift.
Toplam Okuyan: 0 kişi
Bu Ay Okuyan: 0 kişi
Bu Hafta Okuyan: 0 kişi
 
Beğendiniz mi? Öyle Bir Geçer Zaman Ki Tab sayfasını Şimdi paylaşın:

Barış Akarsu - Öyle Bir Geçer Zaman Ki - Tab


Puanlama:
 (0 kişi)

Öyle Bir Geçer Zaman Ki şarkısının diğer versiyonlarına bakın >>

Metin boyutu: ( + Büyült ) ( - Küçült)   


E|------------------------------------------------
B|------------------------------------------------
G|------------------------------------------------
D|---6-5-3---3---5p3---3h5-3--3-------------------
A|-3-----------------6------------3-6-4-----------
E|------------------------------------------------

E|------------------------------------------------
B|------------------------------------------------
G|--------------------------------3-5-5h6---------
D|--------------------6h5-3-5-6-------------------
A|--3-4-3-----4-3---------------------------------
E|--------4-0-------------------------------------

E|------------------------------------------------
B|------------------------------------------------
G|--5-6-8/10--8--5h6p5--3--1--3--0----------------
D|------------------------------------------------
A|------------------------------------------------
E|------------------------------------------------
Öyle Bir Geçer Zaman Ki Tab, AkorMerkezi.com'da yayınlanmıştır.
http://www.akormerkezi.com


İçerik Kısa Linki:


Beğendiniz mi? Öyle Bir Geçer Zaman Ki Tab sayfasını Şimdi paylaşın:


Öyle Bir Geçer Zaman Ki şarkısı için amatör kayıtları dinleyin: (Siz de Ekleyin)

Öyle Bir Geçer Zaman Ki Tab için Komoçotoko'dan Gelenler
Aramalar: f
Barış Akarsu - Öyle Bir Geçer Zaman Ki için Kullanıcı Görüşleri

Henüz buraya yazan çizen olmamış. Yorum yapmak için buraya tıklayabilirsiniz.


Siz de Görüş Bildirin

Yorum yazma alanı Akor Merkezi üyelerine özel bir bölümdür. (Giriş Yap / Üye Ol / Şifremi Hatırlat)


Anket
italione26 soruyor:
Hangisi en iyi elektro klasik gitar markasıdır?










Sonuçlar | Sonuçlar & Yorumlar
Yeni Anket | Anketler



AkorMerkezi.com © 2022
Gizlilik Politikası - Kullanım Koşulları - Kurallar - Son Yorumlar - Rastgele

GitarAkor.com kolonisidir. Derleme 0,03 saniye.