Akor Tab Söz Çeviri Anasayfası
Akor|Tab|Söz|Nota Arşivi
Gitar Akorları | Tab,Söz ve Nota Anasayfası | En Yeni Şarkılar | En Popüler Şarkılar | Akor Cetveli

Bilgiler
 
Seslendiren ve Şarkı: Barış Manço - Anlıyorsun Değil Mi?
Biçim: TAB - SOLO
Tarih: 01 Mayıs 2012 Salı
Gönderen: metinilekadir
Toplam Okuyan: 3.820 kişi
Bu Ay Okuyan: 43 kişi
Bu Hafta Okuyan: 7 kişi
 
Beğendiniz mi? Anlıyorsun Değil Mi? Tab sayfasını Şimdi paylaşın:

Barış Manço - Anlıyorsun Değil Mi? - Tab


Puanlama:
 (5 kişi)

Anlıyorsun Değil Mi? şarkısının diğer versiyonlarına bakın >>

Metin boyutu: ( + Büyült ) ( - Küçült)   
E---------------/------------------/---------------/---------------
B---------0-0-1-/-1-0---0-0--------/---------------/-----------0--- .
G-----2-2-------/-----2------0-0-2-/---------------/-----2-2-1---2-  
D-2-2-----------/------------------/-2-2-3-3-2-0-2-/-2-2----------- .
A---------------/------------------/---------------/---------------
E---------------/------------------/---------------/---------------


E---------------------/---------------/-----------------/-0-1-0-----0-----0----------
B---------------------/---------------/-----------0-----/--------3----1-3---3-1-0----
G-2-1-2-1-----2-0-----/---------------/-----2-2-1---2-2-/------------------------2---
D---------3-3-----3-2-/-2-2-3-3-2-0-2-/-2-2-------------/--------------------------2-
A---------------------/---------------/-----------------/----------------------------
E---------------------/---------------/-----------------/----------------------------

E-0-1-0----0-------0-----------
B-------3-----1-3----3-1-0----- .
G--------------------------2-2-
D------------------------------ .
A------------------------------
E------------------------------
Anlıyorsun Değil Mi? Tab, AkorMerkezi.com'da yayınlanmıştır.
http://www.akormerkezi.com


İçerik Kısa Linki:


Beğendiniz mi? Anlıyorsun Değil Mi? Tab sayfasını Şimdi paylaşın:


Anlıyorsun Değil Mi? Tab için Komoçotoko'dan Gelenler
Aramalar: barış manço anlıyorsun tab, anlıyorsun değil mi, anliyorsun degilmi tab akor merkezi, barış manço anlıyorsun değil mi, google prostitution, BARIŞ MANÇO anlıyorsun, barış manço anlıyorsun değil mi akor, anlıyorsun değil mi tab, anlıyorsun değil mi akor, anlıyorsun değil mi bariş manço
Barış Manço - Anlıyorsun Değil Mi? için Kullanıcı Görüşleri

Henüz buraya yazan çizen olmamış. Yorum yapmak için buraya tıklayabilirsiniz.


Siz de Görüş Bildirin

Yorum yazma alanı Akor Merkezi üyelerine özel bir bölümdür. (Giriş Yap / Üye Ol / Şifremi Hatırlat)




Anket
kelimesiz soruyor:
Hangi tür gitar çalıyorsunuz









Sonuçlar | Sonuçlar & Yorumlar
Yeni Anket | Anketler




Radyo Dinle
AkorMerkezi.com © 2019
Gizlilik Politikası - Kullanım Koşulları - Kurallar - Son Yorumlar - Rastgele

GitarAkor.com kolonisidir. Derleme 0,03 saniye.