Akor Tab Söz Çeviri Anasayfası
Akor|Tab|Söz|Nota Arşivi
Gitar Akorları | Tab,Söz ve Nota Anasayfası | En Yeni Şarkılar | En Popüler Şarkılar | Akor Cetveli

Bilgiler
 
Seslendiren ve Şarkı: Barış Manço - Arkadaşım Eşek
Biçim: TAB -
Tarih: 26 Mayıs 2007 Cumartesi
Gönderen: sakıka
Toplam Okuyan: 48.848 kişi
Bu Ay Okuyan: 541 kişi
Bu Hafta Okuyan: 51 kişi
 
Beğendiniz mi? Arkadaşım Eşek Tab sayfasını Şimdi paylaşın:

Barış Manço - Arkadaşım Eşek - Tab


Puanlama:
 (38 kişi)

Arkadaşım Eşek şarkısının diğer versiyonlarına bakın >>

Metin boyutu: ( + Büyült ) ( - Küçült)   
intro

e ----0-0--1-1--0------1-1--0-------1-1------0---------------------------------
b-----------------3--3--------3--3-------3------1--------0--0-------1--0-------
g-2--2--------------------------------------------------------------------2---- x2



e-----------------------------------------------------------------------------
b------0--1-----------------0---1--------------0--1---------------------------
g---2---------2--0-------2--------2--0-------2-------2--0---------2~---------     x2



e ----0-0--1-1--0------1-1--0--|-------1-1----0------------------------------
b-----------------3--3---------|-3--3------3-----1------0--0-------1---0------  x2
g-2--2-------------------------|-------------------------------------------2--       
kaç yıl oldu saymadım...........mevsımler.......



e-5-5--3-3--1-1--0-----1-1--0---|------1-1--0---------------------------------
b------------------3-3----------|-3-3---------3-----1-----0-0---1-0-----------  x2
g-------------------------------|--------------------------------------2------
dun yine seni andım .......      o tatlı günlerimiz.......     


e-----------------------------------------------------------------------------
b-----0--1-------------------0---1-----------------0--1-----------------------
g---2--------2---0---------2-------2--0--------2-----------2--0---------2~----

arkadasım eş arkadasım sek arakadasım essek.....



e-----------------------------------------------------------------
b-----------------------------------------------------------------
g-----------------------------------------------------------------
d------7-----7------7----7----------------------------------------
a------7-----7------7----7----------------------------------------
E------5-----5------5----5----------------------------------------
     pm          pm          
kac yıl odu saymadım 


e----------------------------------------------------------------------
b-----------------------------------------------------------------------
g--7--7--7--7----------7--7--7--7---------------------------------------
d--7--7--7--7---7--7---7--7--7--7------7--7--------------------2---2----
a--5--5--5--5---7--7---5--5--5--5------7--7--------------------2---2----
E---------------5--5-------------------5--5--------------------0---0----
        pm
koyden goceli          mevsimler geldi gecti               gorusmeyeli......


e-----------------------------------------------------------------
b-----------------------------------------------------------------
g-----------------------------------------------------------------
d-----7-----7-----------5----5-----------7---7-------5---5--------  x2
a-----7-----7-----------5----5-----------7---7-------5---5--------
E-----5-----5-----------3--- 3-----------5---5-------3---3--------
arkadasım es arkadasım es arkadasım essek

Arkadaşım Eşek Tab, AkorMerkezi.com'da yayınlanmıştır.
http://www.akormerkezi.com


İçerik Kısa Linki:


Beğendiniz mi? Arkadaşım Eşek Tab sayfasını Şimdi paylaşın:


Arkadaşım Eşek şarkısı için amatör kayıtları dinleyin: (Siz de Ekleyin)

Arkadaşım Eşek Tab için Komoçotoko'dan Gelenler
Aramalar: barış manço arkadaşım eşek gitar tab songsterr, arkadaşim eşek akor, arkadaşım eşşek gitar tab, arladşım eşşek tab, arkadaşım eşek tab şarkının tamamı, arkadasim es gitar notalari, ARKADA ŞIM EŞŞEK, arkadaşım şek gitar tab, barış manço arkadaşı eşek, arkadaşım eş gitar tabı
Barış Manço - Arkadaşım Eşek için Kullanıcı Görüşleri

bu daha iyi
E|-------0-0-1-1-0-----1-1-0----------------------|
B|-------------------3-3----------------------------|
G|-2-2----------------------------------------------|


E|-----1-1-0------------------------------------|
B|-3-3-------3-1---0-0-1-0----------------------|
G|-----------------------------2--------------------|


E|--5-5-3-3-1-1------1-1-0----------------------|
B|-----------------3-3----------------------------|
G|----------------------------------------------|


E|-----1-1-0------------------------------------|
B|-3-3-------3-1---0-0-1-0----------------------|
G|----------------------------2--------------------|


E|----------------------------------------------|
B|---0-1-0------0-1-0-------0-1-0----------------|
G|-2-------0--2--------0--2--------0--2-----------|


Bu Yoruma Cevap Ver
kertelik | 19 Aralık 2014 Cuma 22:02
biraz hatalı olmuş


Bu Yoruma Cevap Ver
gitar72 | 10 Nisan 2011 Pazar 19:12

intro

e ----0-0--1-1--0------1-1--0-------1-1------0---------------------------------
b-----------------3--3--------3--3-------3------1--0------0--0-------1--0-------
g-2--2--------------------------------------------------------------------2----

e-5-5--3-3--1-1--0-----1-1--0---|------1-1--0---------------------------------
b------------------3-3----------|-3-3---------3-----1-0----0-0---1-0-----------
g-------------------------------|--------------------------------------2------

olması lazım benim duyduguma göre


Bu Yoruma Cevap Ver
ph0en1x | 02 Nisan 2011 Cumartesi 15:50
biraz eksik gibi ama


Bu Yoruma Cevap Ver
AsiLeR | 05 Şubat 2011 Cumartesi 19:06
güzelmiş emeğine sağlık


Bu Yoruma Cevap Ver
AsiLeR | 02 Şubat 2011 Çarşamba 11:55
En altta yazdığı şey nası çalınıyo acaba yardımcı olur musunuz ?


Bu Yoruma Cevap Ver
Mississippi | 21 Aralık 2010 Salı 21:43
biraz yanlışlıklaar var sanki.. ama emege saygı yinede muhtesem olmus


Bu Yoruma Cevap Ver
Ayse Sewm | 05 Temmuz 2010 Pazartesi 20:40
olmuş ama o hemen 2 sinde arkadaşım eşek kısmına girmişsin orda o yok o sonra gelio bide 3 0 1yapmışsın o mevsim yerinde orası 0 3 1 olacak bukadar ama notalar falan doğru ama yerler karışmış


Bu Yoruma Cevap Ver
bekocomtr | 04 Ekim 2009 Pazar 18:04
idare eder :S


Bu Yoruma Cevap Ver
ali_ali | 20 Haziran 2009 Cumartesi 22:45
sanki şu mevsimler kısmı olmamış gibi yha


Bu Yoruma Cevap Ver
_sinem_ | 22 Mayıs 2009 Cuma 21:55
arkadasım essek te 2-0-1-0-2 yapınız ;)


Bu Yoruma Cevap Ver
m_ege1986 | 19 Kasım 2008 Çarşamba 21:54
Çok güzel olmuş eline sağlık=))


Bu Yoruma Cevap Ver
brs174 | 28 Ekim 2008 Salı 18:00
gusel olmus elıne saglık...<br/>


Bu Yoruma Cevap Ver
SeBo!sT | 18 Ağustos 2008 Pazartesi 23:14
eh işte pek beğenmedim"/fck/editor/images/smiley/msn/tounge_smile.gif" alt=""/>


Bu Yoruma Cevap Ver
gitarcıkiz | 16 Ağustos 2008 Cumartesi 19:13
g&uuml;zel


Bu Yoruma Cevap Ver
leke | 13 Ağustos 2008 Çarşamba 10:51
G&uuml;zel olmuş eline sağlıkta eksin diyen arkadaş tamını niye yazmıyo acaba?<br/>


Bu Yoruma Cevap Ver
ati1912 | 05 Ağustos 2008 Salı 16:29
&nbsp;s&uuml;per olmuş tebrik ederim<br/>
<br/>


Bu Yoruma Cevap Ver
Fege | 17 Temmuz 2008 Perşembe 08:38
eline sağlık g&uuml;zel olmuş


Bu Yoruma Cevap Ver
****furkan**** | 15 Temmuz 2008 Salı 18:30
fena değil*saol


Bu Yoruma Cevap Ver
greensoul? | 02 Temmuz 2008 Çarşamba 18:56
g&uuml;zel


Bu Yoruma Cevap Ver
dlrdlr | 02 Temmuz 2008 Çarşamba 10:56
eksik bu tab


Bu Yoruma Cevap Ver
lost_satan | 05 Temmuz 2007 Perşembe 15:07
arkadaşlarr ben daha yeni başladım fakat tablar yerine notalarıyla yazsanız sizce daha gusel olmazmıı ben tabların nasıl olduğunu anlayamıorum yardımcı olursanız tşk ederim


Bu Yoruma Cevap Ver
cimcimmm | 28 Mayıs 2007 Pazartesi 16:35


Siz de Görüş Bildirin

Yorum yazma alanı Akor Merkezi üyelerine özel bir bölümdür. (Giriş Yap / Üye Ol / Şifremi Hatırlat)




Anket
g_t_r soruyor:
Akustik gitarda genel olarak sizce hangisi daha iyidir?







Sonuçlar | Sonuçlar & Yorumlar
Yeni Anket | Anketler




Radyo Dinle
AkorMerkezi.com © 2019
Gizlilik Politikası - Kullanım Koşulları - Kurallar - Son Yorumlar - Rastgele

GitarAkor.com kolonisidir. Derleme 0,03 saniye.