Akor Tab Söz Çeviri Anasayfası
Akor|Tab|Söz|Nota Arşivi
Gitar Akorları | Tab,Söz ve Nota Anasayfası | En Yeni Şarkılar | En Popüler Şarkılar | Akor Cetveli

Bilgiler
 
Seslendiren ve Şarkı: Cahit Berkay - Kırık Bir Aşk Hikayesi
Biçim: TAB - FULL
Tarih: 25 Eylül 2011 Pazar
Gönderen: cigo
Toplam Okuyan: 6.691 kişi
Bu Ay Okuyan: 40 kişi
Bu Hafta Okuyan: 5 kişi
 
Beğendiniz mi? Kırık Bir Aşk Hikayesi Tab sayfasını Şimdi paylaşın:

Cahit Berkay - Kırık Bir Aşk Hikayesi - Tab


Puanlama:
 (3 kişi)

Kırık Bir Aşk Hikayesi şarkısının diğer versiyonlarına bakın >>

Metin boyutu: ( + Büyült ) ( - Küçült)   


e-------------5-------|
B--6---5----6---6-5---|
G---------------------|

e----5-------------------------|
B--8---6-5-8----3-5-3-2--------|
G-----------------------2------|

e-------------5-------|
B--5h6--5---6---6-5---|
G---------------------|

e------5-----------------------|
B--6/8---6-5-6/8----2-----3----|
G----------------------2-------|

PIANO ENTERS

e------------------------|
B---------6-5-6-3-5---3--|
G-------------------5----|

e---------------------------|
B-6/8-5-6-3-5---3-----------|
G-------------5-------------|

e------------------------|
B-6-5-6-3-5---5h6-3------|
G-----------5------------|

---------------------------|
-5-3-2h3p3-----------------|
-----------2---------------|
                       /                         |
Repeat,                 |   
Play nothing 2nd time here
SYNTHESIZER OR SO ENTERS
         SOLO

e------------5-----------|
B-5h6--5---6---6-5h6p5---|
G------------------------|

e-----5---------------------------|
B-6/8---6-5h6p5/8---3-5-3-2h3p2---|
G-------------------------------2-|

e-------------5-----------|
B--5h6--5---6---6-5h6p5---|
G-------------------------|

e------5----------------------|
B--6/8---6-5h6p5/8---2-----3--|
G-----------------------2-----|


e------------------------|
B---------6-5-6-3-5---3--|
G-------------------5----|

e---------------------------|
B-6/8-5-6-3-5---3-----------|
G-------------5-------------|

e------------------------|
B-6-5-6-3-5---5h6-3------|
G-----------5------------|

---------------------------|
-5-3-2h3p3-----------------|
-----------2---------------|
                       /                         |
Repeat,                 |   
Play nothing 2nd time here
            
e-----------------17---------------|
B--17h18--17---18----18-17h18p17---|

e-----17---------------------------------|
B--20----18-17h18p17-20---15-17-15-14----|
G-------------------------------------14-|


e-----------------17---------------|
B--17h18--17---18----18-17h18p17---|

e-----17-----------------|------------|
B--20----18-17h18p17-20--|-14------15-|
G------------------------|-----14-----|
D------------------------|------------|
A------------------------|-Repeat--3X-|
E------------------------|------------|
 
Kırık Bir Aşk Hikayesi Tab, AkorMerkezi.com'da yayınlanmıştır.
http://www.akormerkezi.com


İçerik Kısa Linki:


Beğendiniz mi? Kırık Bir Aşk Hikayesi Tab sayfasını Şimdi paylaşın:


Kırık Bir Aşk Hikayesi Tab için Komoçotoko'dan Gelenler
Aramalar: Bir ask hikayesi, bir aşk hikayesi 6 bölümdekı rap, bizimkisi bir aşk hikayesi gitar notaları tab, bizimkisi bir aşk hikayesi gitar sesi, aşk hikayesi, bizimkisi bir aşk hikayesi nota, cahit berkay, cahit Berkay tab, bizimkisi kırık bir aşk hikayesi, kırık bir aşk hikayesi gitsr tab
Cahit Berkay - Kırık Bir Aşk Hikayesi için Kullanıcı Görüşleri

harika kardeş sağolasın


Bu Yoruma Cevap Ver
Rock Forever W | 16 Aralık 2011 Cuma 19:35


Siz de Görüş Bildirin

Yorum yazma alanı Akor Merkezi üyelerine özel bir bölümdür. (Giriş Yap / Üye Ol / Şifremi Hatırlat)


Anket
DuMaN_21 soruyor:
Hangisi Daha İyi







Sonuçlar | Sonuçlar & Yorumlar
Yeni Anket | Anketler



AkorMerkezi.com © 2024
Gizlilik Politikası - Kullanım Koşulları - Kurallar - Son Yorumlar - Rastgele

GitarAkor.com kolonisidir. Derleme 0,03 saniye.