Akor Tab Söz Çeviri Anasayfası
Akor|Tab|Söz|Nota Arşivi
Gitar Akorları | Tab,Söz ve Nota Anasayfası | En Yeni Şarkılar | En Popüler Şarkılar | Akor Cetveli

Bilgiler
 
Seslendiren ve Şarkı: Dizi Müzikleri - Medcezir
Biçim: TAB - INTRO
Tarih: 16 Aralık 2013 Pazartesi
Gönderen: Hilo
Toplam Okuyan: 43.947 kişi
Bu Ay Okuyan: 907 kişi
Bu Hafta Okuyan: 85 kişi
 
Beğendiniz mi? Medcezir Tab sayfasını Şimdi paylaşın:
DİKKAT!
Medcezir Tab sayfasını düzgün görüntüleyemiyor olabilirsiniz.
Eğer böyle bir sıkıntınız varsa tıklayın.

Dizi Müzikleri - Medcezir - Tab


Puanlama:
 (40 kişi)

Medcezir şarkısının diğer versiyonlarına bakın >>

Metin boyutu: ( + Büyült ) ( - Küçült)   
İlk denemem :) yanlışlıklar varsa özür dilerim yanlışlarımı düzeltmenizi ister puan vermenizi rica ederim :D .
..

E-----0----0-0-0-0-1-0----0--------------------------------------------------------0-0-0---0--0
B---1-----------------------3-1-0------3-3-3-3-1-0-----1-1-1--1-----3-3-3-0-3-0----------1--1--
G-2-------------------------------2----------------2---------2-2-------------------------------  
D----------------------------------------------------------------------------------------------
A----------------------------------------------------------------------------------------------
E----------------------------------------------------------------------------------------------


Medcezir Tab, AkorMerkezi.com'da yayınlanmıştır.
http://www.akormerkezi.com


İçerik Kısa Linki:


Beğendiniz mi? Medcezir Tab sayfasını Şimdi paylaşın:


Medcezir Tab için Komoçotoko'dan Gelenler
Aramalar: medcezir gitar tqb, meccezir tab, med cezir jenerik müziği notaları, notalı medcezir fon müzigi, medcezir jenerik muzik melodika notalari, medcezir hızlı gitar müziği tab, medcezir dizisi fon müziği notaları, medcezir dizi slow müziği tab, medcezir jenerik tab, medcezir jenerik müziği gitar akor
Dizi Müzikleri - Medcezir için Kullanıcı Görüşleri

Peki sonra devamı nasıl oluyor ?


Bu Yoruma Cevap Ver
dezo2002 | 3 Aralık 2014 Çarşamba 17:26
E-----0----0-0-0-0-1-0----0--------------------------------------------------------0-0-0---0--0
B---1-----------------------3-1-0------3-3-3-3-1-0-----1-1-1--1-----3-3-3-0-3-0----------1--1--
G-2-------------------------------2----------------2---------2-2-------------------------------
D----------------------------------------------------------------------------------------------
A----------------------------------------------------------------------------------------------
E----------------------------------------------------------------------------------------------

Arkadaşlar ben bundan hic bisi anlamıyorm bana bi açıklarmısınız lütfen


Bu Yoruma Cevap Ver
mertkara | 14 Mart 2014 Cuma 14:06
g telinde 2. perde 2 kez ve b telinde birinci perde iki kez olsaydı daha iyi olurdu ama çok güzel tebrik ederim :)


Bu Yoruma Cevap Ver
Mücahit 9 | 6 Şubat 2014 Perşembe 20:05
22 Ocak 2014 Çarşamba tarihinde kevinabi yazmıştı:
1 tel : ....... 0.. 2...3.........0..3..5...............0...2...3...........0..3..5..........
2 tel : ...0...................0.......................0....................0.....................
4.tel : 2...................2......................0....................0........................ 

bence boyle daha iyi
evet bu


Bu Yoruma Cevap Ver
_BoMbAsTiC_ | 31 Ocak 2014 Cuma 17:10
1 tel : ....... 0.. 2...3.........0..3..5...............0...2...3...........0..3..5..........
2 tel : ...0...................0.......................0....................0.....................
4.tel : 2...................2......................0....................0........................ 

bence boyle daha iyi


Bu Yoruma Cevap Ver
kevinabi | 22 Ocak 2014 Çarşamba 14:32
anlamadım daha kolay anlatırsanız sevinirim. :)


Bu Yoruma Cevap Ver
DespicableSense | 17 Ocak 2014 Cuma 20:33
sesi fazla çıkaramadım başka müzik herhalde


Bu Yoruma Cevap Ver
kevinabi | 14 Ocak 2014 Salı 15:56


Siz de Görüş Bildirin

Yorum yazma alanı Akor Merkezi üyelerine özel bir bölümdür. (Giriş Yap / Üye Ol / Şifremi Hatırlat)


Anket
AdminEmmi soruyor:
GitarAkor'a en çok eklenmesini istediğiniz bölüm nedir?











Sonuçlar | Sonuçlar & Yorumlar
Yeni Anket | Anketler



AkorMerkezi.com © 2022
Gizlilik Politikası - Kullanım Koşulları - Kurallar - Son Yorumlar - Rastgele

GitarAkor.com kolonisidir. Derleme 0,03 saniye.