Akor Tab Söz Çeviri Anasayfası
Akor|Tab|Söz|Nota Arşivi
Gitar Akorları | Tab,Söz ve Nota Anasayfası | En Yeni Şarkılar | En Popüler Şarkılar | Akor Cetveli

Bilgiler
 
Seslendiren ve Şarkı: Dizi Müzikleri - Medezir - Bir Kuyruklu Yildiza Mektup
Biçim: TAB - FULL
Tarih: 21 Kasım 2018 Çarşamba
Gönderen: genckartal64
Toplam Okuyan: 0 kişi
Bu Ay Okuyan: 0 kişi
Bu Hafta Okuyan: 0 kişi
 
Beğendiniz mi? Medezir - Bir Kuyruklu Yildiza Mektup Tab sayfasını Şimdi paylaşın:
DİKKAT!
Medezir - Bir Kuyruklu Yildiza Mektup Tab sayfasını düzgün görüntüleyemiyor olabilirsiniz.
Eğer böyle bir sıkıntınız varsa tıklayın.

Dizi Müzikleri - Medezir - Bir Kuyruklu Yildiza Mektup - Tab


Puanlama:
 (0 kişi)


Metin boyutu: ( + Büyült ) ( - Küçült)   
İLK KISIM
E|----------------------------------------------------------------}
B|--0-1-0-1-0-1---------------------------------------------------}
G|----------------------------------------------------------------} 2X
D|-2--------------------------------------------------------------}
A|0---------------------------------------------------------------}
E|----------------------------------------------------------------}

E|----------------------------------------------------------------}
B|--0-1-0-1-0-1---------------------------------------------------}
G|----------------------------------------------------------------} x2
D|-2--------------------------------------------------------------}
A|----------------------------------------------------------------}
E|3---------------------------------------------------------------}

E|----------------------------------------------------------------}
B|--0-1-0-1-0-1---------------------------------------------------}
G|----------------------------------------------------------------} x2
D|-2--------------------------------------------------------------}
A|----------------------------------------------------------------}
E|1---------------------------------------------------------------}

E|----------------------------------------------------------------}
B|--0-1-0-1-0-1---------------------------------------------------}
G|----------------------------------------------------------------} 
D|-2--------------------------------------------------------------}
A|----------------------------------------------------------------}
E|3---------------------------------------------------------------}

E|----------------------------------------------------------------}
B|---0-0-0--------------------------------------------------------}
G|--2-2-2---------------------------------------------------------} 
D|-2--------------------------------------------------------------}
A|----------------------------------------------------------------}
E|3---------------------------------------------------------------}

ÜST KISIM ARPEJ ATAR GİBİ

SOLOSU:

E|0---3-1-0-0-0-7-5-3-0-0-7-5-3-0-0-1-0-0-------------------------}
B|-3-1-------1---------3---------3-----3-1-0----------------------}
G|----------------------------------------------------------------} 
D|----------------------------------------------------------------}
A|----------------------------------------------------------------}
E|----------------------------------------------------------------}

E|-0-1-0-----------------1-0--------------------------------------}
B|3-----3-1-0-1-3-1-0-1-3---3-1-----------------------------------}
G|----------------------------------------------------------------} 
D|----------------------------------------------------------------}
A|----------------------------------------------------------------}
E|----------------------------------------------------------------}

E|------------------------0-1-0-----------------------------------}
B|0-0-1-0-0-0-0--1-1-0-3-1----------------------------------------}
G|---2----------2-------------------------------------------------} 6. VE 2. TELLERE AYNI ANDA VURUYORUZ
D|----------------------------------------------------------------}
A|----------------------------------------------------------------}
E|0-0---0-0-0-0---------------------------------------------------}

E|12-10-8-15-13-12-12-8-12-19-17-15-12-10-12-19-17-15-12-10-12-10-12-8-7--------------------------------------
-}
B|----------------------------------------------------------------}
G|----------------------------------------------------------------}
D|----------------------------------------------------------------}
A|----------------------------------------------------------------}
E|----------------------------------------------------------------}


MEDCEZİR DİZİSİNDE YAMANIN MİRAYA YAPMIŞ OLDUĞU BESTE BİR KUYRUKLU YILDIZA MEKTUP.


Medezir - Bir Kuyruklu Yildiza Mektup Tab, AkorMerkezi.com'da yayınlanmıştır.
http://www.akormerkezi.com


İçerik Kısa Linki:


Beğendiniz mi? Medezir - Bir Kuyruklu Yildiza Mektup Tab sayfasını Şimdi paylaşın:


Medezir - Bir Kuyruklu Yildiza Mektup Tab için Komoçotoko'dan Gelenler
Dizi Müzikleri - Medezir - Bir Kuyruklu Yildiza Mektup için Kullanıcı Görüşleri

Henüz buraya yazan çizen olmamış. Yorum yapmak için buraya tıklayabilirsiniz.


Siz de Görüş Bildirin

Yorum yazma alanı Akor Merkezi üyelerine özel bir bölümdür. (Giriş Yap / Üye Ol / Şifremi Hatırlat)




Anket
Mewto soruyor:
Gitarla ilgili her ankette İbanezin çok oy almasının nedeni dedir ?









Sonuçlar | Sonuçlar & Yorumlar
Yeni Anket | Anketler




Radyo Dinle
AkorMerkezi.com © 2018
Gizlilik Politikası - Kullanım Koşulları - Kurallar - Son Yorumlar - Rastgele

GitarAkor.com kolonisidir. Derleme 0,02 saniye.