Akor Tab Söz Çeviri Anasayfası
Akor|Tab|Söz|Nota Arşivi
Gitar Akorları | Tab,Söz ve Nota Anasayfası | En Yeni Şarkılar | En Popüler Şarkılar | Akor Cetveli

Bilgiler
 
Seslendiren ve Şarkı: Dream Theater - As I Am
Biçim: Bass Tab, Bass Gitar Tab - HİÇBİRİ
Tarih: 11 Mart 2008 Salı
Gönderen: fixxxer
Toplam Okuyan: 1.458 kişi
Bu Ay Okuyan: 26 kişi
Bu Hafta Okuyan: 3 kişi
 
Beğendiniz mi? As I Am Bass Tab sayfasını Şimdi paylaşın:

Dream Theater - As I Am - Bass Tab


Puanlama:
 (0 kişi)

As I Am şarkısının diğer versiyonlarına bakın >>

Metin boyutu: ( + Büyült ) ( - Küçült)   
5 Telli Standart(B E A D G)

(0:16)
G|----------|----------| x8
D|----------|----------|
A|----------|----------|
E|----------|----------|
B|1---------|----------|

(0:55)
G|-------------|----------| x4
D|-------------|----------|
A|-------3---3-|----------|
E|-------------|2---------|
B|1--1-1---1---|----------|

(1:14)
G|-----------|-----------| x4
D|-----------|-----------|
A|-----3---3-|--3---3----|
E|-----------|2---1------|
B|1111---1---|--------4--|

(1:29)
doğru zamanlama için şarkıya bakın
G||-----------|-----------|-----------|------------|-
D||-----------|-----------|-----------|------------|-
A||-----------|-----------|-----------|------------|-
E||-----------|-----------|-----------|------------|-
B||1111-221212|1111-221221|1111-221212|1111-444-222|-

------------|-----------|-----------|------------|| x3
------------|-----------|-----------|------------||
------------|-----------|-----------|------------||
------------|-----------|-----------|---------222||
-1111-221212|1111-221221|1111-221212|1111-444----||

(2:13)
G|--------|--------|--------|--------|--------|--------|--------|--------| 
D|--------|--------|--------|--------|--------|--------|--------|--------|
A|--------|--------|--------|--------|--------|--------|--------|--------|
E|3-------|----1-4-|3-------|------3-|--------|--1-4~--|3~------|--------|
B|----4~--|3-------|----4---|3-1-----|--4~--3~|--------|----4~--|3-1~----|

G|--------|--------|--------|--------|--------|--------|--------|--------| 
D|--------|--------|--------|--------|--------|--------|--------|--------|
A|--------|--------|--------|--------|--------|--------|--------|--------|
E|3~------|----1-4-|3~------|------3~|--------|--1-4~--|3~------|--------|
B|----4~--|3~------|----4~--|3-1~----|--4~--3~|--------|----4~--|3-2~----|

(2:44)
G|--------|--------|--------|-----------|--------|--------|--------|---------|
D|--------|--------|--------|-----------|--------|--------|--------|---------|
A|--------|--------|--------|-----------|--------|--------|--------|---------|
E|--------|----3---|----3---|---4h644---|--------|----3---|----3---|----4-4-4|
B|1---1-3-|4-----1-|3-----1-|2--------23|1---1-3-|4-----1-|3-----1-|2-2------|

G|--------|--------|--------|-----------|--------|--------|--------|-------|
D|--------|--------|--------|-----------|--------|--------|--------|-------|
A|--------|--------|--------|-----------|--------|--------|--------|-------|
E|--------|----3---|----3---|---4h644---|--------|----3---|----3---|----4-4|
B|1---1-3-|4-----1-|3-----1-|2--------23|1---1-3-|4-----1-|3-----1-|2-2----|

(3:12)
G|-----------|-----------| x4
D|-----------|-----------|
A|-----3---3-|--3---3----|
E|-----------|2~--1~-----|
B|1111---1---|--------4~-|

(3:27)
G||-----------|-----------|-----------|------------|-
D||-----------|-----------|-----------|------------|-
A||-----------|-----------|-----------|------------|-
E||-----------|-----------|-----------|------------|-
B||1111-221212|1111-221221|1111-221212|1111-444-222|-

------------|-----------|---------|------------|| x2
------------|-----------|---------|------------||
------------|-----------|---------|------------||
------------|-----------|---------|---------222||
-1111-221212|1111-221211|11-221212|1111-444----||

(3:56)
G|--------|--------|--------|--------|--------|--------|--------|--------| 
D|--------|--------|--------|--------|--------|--------|--------|--------|
A|--------|--------|--------|--------|--------|--------|--------|--------|
E|3~------|----1-4-|3~------|------3~|--------|--1-4~--|3~------|--------|
B|----4~--|3~------|----4~--|3-1~----|--4~--3~|--------|----4~--|3-1~----|

G|--------|--------|--------|--------|--------|--------|--------|--------| 
D|--------|--------|--------|--------|--------|--------|--------|--------|
A|--------|--------|--------|--------|--------|--------|--------|--------|
E|3~------|----1-4-|3~------|------3~|--------|--1-4~--|3~------|--------|
B|----4~--|3~------|----4~--|3-1~----|--4~--3~|--------|----4~--|3-2~----|


(4:26)
G|--------|--------|--------|-----------|--------|--------|--------|---------|
D|--------|--------|--------|-----------|--------|--------|--------|---------|
A|--------|--------|--------|-----------|--------|--------|--------|---------|
E|--------|----3---|----3---|---4h64----|--------|----3---|----3---|----4-4-4|
B|1---1-3-|4-----1-|3-----1-|2--------23|1---1-3-|4-----1-|3-----1-|2-2------|

G|--------|--------|--------|-----------|--------|--------|--------|-------|
D|--------|--------|--------|-----------|--------|--------|--------|-------|
A|--------|--------|--------|-----------|--------|--------|--------|-------|
E|--------|----3---|----3---|---4h644---|--------|----3---|----3---|----4-4|
B|1---1-3-|4-----1-|3-----1-|2--------23|1---1-3-|4-----1-|3-----1-|2-2----|


Solo (4:55)
G|--------|--------|--------|--------|--------|--------|--------|--------|
D|--------|--------|--------|--------|--------|--------|--------|--------|
A|--------|--------|--------|--------|--------|--------|--------|------6-|
E|--------|2~------|----6-5-|4~------|--------|2~------|----6-5-|4~--7---|
B|1~------|----1-2-|3~------|-----2-3|1~------|----1-2-|3~------|--------|

G|--------|--------|--------|--------|--------|--------|--------|--------|
D|--------|--------|--------|--------|--------|--------|--------|--------|
A|--------|--------|--------|--------|--------|--------|--------|--------|
E|--------|2~------|----6-5-|4~------|--------|2~------|----6-5-|4-4-4-4-|
B|1~------|----1-2-|3~------|-----2-3|1~------|----1-2-|3~------|--------|

(5:24)
G|----------|--------------|----------|------------|
D|----------|--------------|----------|------------|
A|----------|6--/9-8-6-----|----------|------------|
E|----------|--8-----------|----------|------------|
B|6~---9~---|-----------1-4|6~---9~---|4~----1-4-1-|

G|----------|--------------|----------|---------------|
D|----------|--------------|----------|---------------|
A|----------|6--/9-8-6-----|----------|---------------|
E|----------|--8-----------|----------|---------------|
B|6~---9~---|-----------1-4|6~---9~---|4~-1-4-1-1-4-1-|

G|----------|--------------|----------|---------------|
D|----------|--------------|----------|---------------|
A|----------|6--/9-8-6-----|----------|---------------|
E|----------|--8-----------|----------|---------------|
B|6~---9~---|-----------1-4|6~---9~---|4~----1-4-1-18|

G|----------|--------------|----------|---------------|
D|----------|--------------|----------|---------------|
A|----------|6--/9-8-6-----|----------|---------------|
E|----------|--8-----------|----------|---------------|
B|6~---9~---|-----------1-4|6~---9~---|4~-1-4-1-1-4-1-|

(5:53)
G|-----------|-----------| x4
D|-----------|-----------|
A|-----3---3-|--3---3----|
E|-----------|2~--1~-----|
B|1111---1---|--------4~-|

(6:08)
G|--------|--------|--------|--------|--------|--------|--------|-------|
D|--------|--------|--------|--------|--------|--------|--------|-------|
A|--------|--------|--------|--------|--------|--------|--------|-------|
E|--------|--------|--------|--------|--------|--------|--------|----4-4|
B|1-------|4-------|3-------|2-------|1-------|4-------|3-------|2-2----|



(6:21)
G|--------|--------|--------|-----------|--------|--------|--------|---------|
D|--------|--------|--------|-----------|--------|--------|--------|---------|
A|--------|--------|--------|-----------|--------|--------|--------|---------|
E|--------|----3---|----3---|---4h644---|--------|----3---|----3---|----4-4-4|
B|1---1-3-|4-----1-|3-----1-|2--------23|1---1-3-|4-----1-|3-----1-|2-2------|

G|--------|--------|--------|-----------|--------|--------|--------|-------|
D|--------|--------|--------|-----------|--------|--------|--------|-------|
A|--------|--------|--------|-----------|--------|--------|--------|-------|
E|--------|----3---|----3---|---4h644---|--------|----3---|----3---|----4-4|
B|1---1-3-|4-----1-|3-----1-|2--------23|1---1-3-|4-----1-|3-----1-|2-2----|


(6:49)
G|-----------|-----------| x8 |--------|
D|-----------|-----------|    |--------|
A|-----3---3-|--3---3----|    |--------|
E|-----------|2~--1~-----|    |--------|
B|1111---1---|--------4~-|    |1~------|










As I Am Bass Tab, AkorMerkezi.com'da yayınlanmıştır.
http://www.akormerkezi.com


İçerik Kısa Linki:


Beğendiniz mi? As I Am Bass Tab sayfasını Şimdi paylaşın:


As I Am Bass Tab için Komoçotoko'dan Gelenler
Aramalar: dream on bass akor, am.bas, dream theater as ı m tab, as i am, damage inc dream theater bass tab
Dream Theater - As I Am için Kullanıcı Görüşleri

nakarat caldıgı yer olan 221212 kısmı tamamen yanlış eksikler var baş kısımdada bu yüzden kalanına bakma gereği duymadım


Bu Yoruma Cevap Ver
kurtax | 30 Temmuz 2008 Çarşamba 09:47


Siz de Görüş Bildirin

Yorum yazma alanı Akor Merkezi üyelerine özel bir bölümdür. (Giriş Yap / Üye Ol / Şifremi Hatırlat)


Anket
Çağtay ULUSOY soruyor:
Sizce En İyi Gitar Markası?








Sonuçlar | Sonuçlar & Yorumlar
Yeni Anket | Anketler



AkorMerkezi.com © 2022
Gizlilik Politikası - Kullanım Koşulları - Kurallar - Son Yorumlar - Rastgele

GitarAkor.com kolonisidir. Derleme 0,03 saniye.