Akor Tab Söz Çeviri Anasayfası
Akor|Tab|Söz|Nota Arşivi
Gitar Akorları | Tab,Söz ve Nota Anasayfası | En Yeni Şarkılar | En Popüler Şarkılar | Akor Cetveli

Bilgiler
 
Seslendiren ve Şarkı: Duman - Ah
Biçim: TAB -
Tarih: 8 Aralık 2006 Cuma
Gönderen: silver_wolf
Toplam Okuyan: 45.763 kişi
Bu Ay Okuyan: 401 kişi
Bu Hafta Okuyan: 41 kişi
 
Beğendiniz mi? Ah Tab sayfasını Şimdi paylaşın:

Duman - Ah - Tab

  (versiyon 2)
Puanlama:
 (5 kişi)

Ah şarkısının diğer versiyonlarına bakın >>

Metin boyutu: ( + Büyült ) ( - Küçült)   
INTRO
E|---------------------------|--------------------------|
B|------------6--4--3--------|--------------------------|
G|---------7-----------5--3--|--------------------------|
D|------5--------------------|-----1--1--0--1--0--1--0--|
A|---------------------------|--3--x--x--x--x--x--x--x--|
E|--3/5----------------------|--------------------------|

Soloda neden re telinin 12. kısmını kullandım die mrk edebilirsiniz
bunun yerine sol telinin 7. kısmı warken ama aynı sesi vermiyecektir.
Çalarken farkına warırsınız..

SOLO
E|---------------------------|--------------------------|
B|---------------------------|--------------------------|
G|---------7--8--7--5--3-----|------10--8--7--5--3------|
D|--12[~]--------------------|--12----------------------|
A|---------------------------|--------------------------|
E|---------------------------|--------------------------|

SOLO 2
E|---------------------------|--------------------------|
B|---------------------------|--------------------------|
G|-----5/3--5--6--5/3--------|--------------------------|
D|--5------------------5/3---|--------------------------|
A|---------------------------|--------------------------|
E|---------------------------|--------------------------|

Bass SOLO
E|---------------------------|--------------------------|
B|---------------------------|--------------------------|
G|---------------------------|--------------------------|
D|---------------------------|--------------------------|
A|---------------------------|--2--2--2--5--5--5--5-----|
E|--8--7--5--3--2--3--4--5---|--2--2--2--5--5--5--5-----|

Söz kısmında la telinin 5. ve re telinin 7. kısmına x basıyosunuz
E|---------------------------|--------------------------|
B|---------------------------|--------------------------|
G|---------------------------|---7--7--7--7--7--7--7----|
D|--7[x]--7[x]->-------------|---6--6--6--6--6--6--6----|
A|--5[x]--5[x]->-------------|---5--5--5--5--5--5--5----|
E|---------------------------|--------------------------|

Aradaki uzatmalı vuruşlar ise ;
E|---------------------------|--------------------------|
B|---------------------------|--------------------------|
G|---------------------------|--------------------------|
D|--12/13/12/13->------------|--------------------------|
A|---------------------------|--------------------------|
E|---------------------------|--------------------------|

Mail adresim açık , herhangi bi soru veya problem için mail atabilirsiniz
ayrıca tabını çıkarmak istediğiniz parça isminide mail olarak gönderirseniz
yardımcı olurum.

                                          Made by silver_wolf 
Ah Tab, AkorMerkezi.com'da yayınlanmıştır.
http://www.akormerkezi.com


İçerik Kısa Linki:


Beğendiniz mi? Ah Tab sayfasını Şimdi paylaşın:



Ah Tab için Komoçotoko'dan Gelenler
Aramalar: ah yandım solo akor, ah bu ben solo tab, solo öğren, nejat isler ah gitara tab version, duman ah orjinal tab, duman ah solo öğren, ah nejat işler tab, ah solo tab akor merkezi, duman ah tab akor, ah bu ben tab solo
Duman - Ah için Kullanıcı Görüşleri

işte bu ya


Bu Yoruma Cevap Ver
aybenez :D | 25 Nisan 2011 Pazartesi 21:20
ıntro güsel ama gerisi boş..


Bu Yoruma Cevap Ver
Crysis Max | 29 Haziran 2009 Pazartesi 17:29
pardon teli kapatıp vurmaktır.


Bu Yoruma Cevap Ver
marionn | 7 Haziran 2009 Pazar 23:54
x bos tele vurmaktır.


Bu Yoruma Cevap Ver
marionn | 7 Haziran 2009 Pazar 23:53
ölmamış


Bu Yoruma Cevap Ver
Crysis Max | 31 Mayıs 2009 Pazar 13:34
ii olmuş saol (:


Bu Yoruma Cevap Ver
gitar-delisi | 24 Ekim 2008 Cuma 17:25
bu arada orjinal solosu<br/>
YANİ DUMAN B&Ouml;YLE &Ccedil;ALIYO<br/>
<br/>
|-----------------------------------------------------------------------|<br/>
|-----------------------------------------------------------------------|<br/>
|-----------------------------------------------------------------------|<br/>
|------------------------------------------------1-1-01-0-1-0------|<br/>
|------5---5--5--------&nbsp; 3--3--3--------3--------------------------|<br/>
|-6---6---6---6----4---4--4--4------------------------------------|&nbsp;&nbsp;&nbsp;&nbsp;<br/>
<br/>
EMEĞE SAYGI...!&nbsp;&nbsp;&nbsp;


Bu Yoruma Cevap Ver
mahzen03 | 25 Temmuz 2008 Cuma 21:44
arkadaşlar &ouml;z&uuml;r dilerim solo yazmışım intro yazıcaktım...!


Bu Yoruma Cevap Ver
mahzen03 | 25 Temmuz 2008 Cuma 21:33
<p>ilk başındaki solo da hata var o 3ten 5 e değil 3 ten 6 ya kadar...!emeğine sağlık</p>


Bu Yoruma Cevap Ver
mahzen03 | 25 Temmuz 2008 Cuma 17:48
x g&ouml;rd&uuml;ğ&uuml;n del i &ccedil;almıyosun arkadaşım ok :D:D


Bu Yoruma Cevap Ver
epz | 22 Temmuz 2008 Salı 00:37
<p>eyvallah. orjinal olmuş...</p>


Bu Yoruma Cevap Ver
JeoMusic | 20 Temmuz 2008 Pazar 00:04
&ccedil;ok iyi


Bu Yoruma Cevap Ver
aykırı533 | 10 Temmuz 2008 Perşembe 23:11
x ler ne harbici "/fck/editor/images/smiley/msn/confused_smile.gif" alt=""/><br/>


Bu Yoruma Cevap Ver
£ c ]-[ ( ) | 17 Haziran 2008 Salı 15:13
last coder kardesim dogru demis 3/6 daha iyi yyinede güzel olmus eline saglık


Bu Yoruma Cevap Ver
muxo | 16 Nisan 2008 Çarşamba 20:34
biri bana su x ler nedir söliye bilir mi ^^


Bu Yoruma Cevap Ver
uleeeeennnnü | 10 Şubat 2008 Pazar 13:27
eline saglık abicim gayet güzel olmus saolun:)


Bu Yoruma Cevap Ver
psychopathalper | 23 Ekim 2007 Salı 19:29
arkadaşlar bu işte yeniyim ve tablarla ilgili pek bişi bilmişorum birisi bana bu konuda yardımçı olabilirmi mail adresinizi verirseniz yada burdan konuşalım mesela sayıla dısındaki işaretler nedir ne işe yarar?


Bu Yoruma Cevap Ver
safakaltun | 30 Ağustos 2007 Perşembe 23:05
olmuşşş......


Bu Yoruma Cevap Ver
is_mail | 20 Nisan 2007 Cuma 14:01
helal olsun kardeşim ilk once bir sarkıyı çalmayı deneyin sonra konusun bence gayet guzel olmus listeye konulan en iyi tablardan biri eline kulagına sağlıkk ....


Bu Yoruma Cevap Ver
gomancele | 31 Ocak 2007 Çarşamba 14:08
introda birz pblem var 3/5- olmayacak 3/6 olacak isterseniz deneyin


Bu Yoruma Cevap Ver
LasTCoder | 28 Ocak 2007 Pazar 16:24
mükemmel diyen ne diye mükemmel diyor ki?



Bu Yoruma Cevap Ver
üye-silinmiş | 23 Aralık 2006 Cumartesi 13:32
mükemmel ellerinize sağlık


Bu Yoruma Cevap Ver
gurup_karanlik | 9 Aralık 2006 Cumartesi 18:08


Siz de Görüş Bildirin

Yorum yazma alanı Akor Merkezi üyelerine özel bir bölümdür. (Giriş Yap / Üye Ol / Şifremi Hatırlat)


Anket
eren kestek soruyor:
Yerli Gruplardan Secondu Taniyan Kimse Yokmu Ya !?










Sonuçlar | Sonuçlar & Yorumlar
Yeni Anket | Anketler



AkorMerkezi.com © 2022
Gizlilik Politikası - Kullanım Koşulları - Kurallar - Son Yorumlar - Rastgele

GitarAkor.com kolonisidir. Derleme 0,05 saniye.