Akor Tab Söz Çeviri Anasayfası
Akor|Tab|Söz|Nota Arşivi
Gitar Akorları | Tab,Söz ve Nota Anasayfası | En Yeni Şarkılar | En Popüler Şarkılar | Akor Cetveli

Bilgiler
 
Seslendiren ve Şarkı: Duman - Dön Ne Olur
Biçim: Akor, Gitar Akorları - FULL
Tarih: 19 Mayıs 2013 Pazar
Gönderen: peaceblues
Toplam Okuyan: 3.622 kişi
Bu Ay Okuyan: 52 kişi
Bu Hafta Okuyan: 6 kişi
 
Beğendiniz mi? Dön Ne Olur Akor sayfasını Şimdi paylaşın:

Duman - Dön Ne Olur - Akor

  (versiyon 7)
Puanlama:
 (4 kişi)

Dön Ne Olur şarkısının diğer versiyonlarına bakın >>

Metin boyutu: ( + Büyült ) ( - Küçült)   
Am  Bb     Am
Sen gittin gözüm arkada kaldı 
Bb
Canım sıkıldı çabuk gel 
C         Bb  Dm
Tadım kalmadı hemen gel 

Am  Bb     Am
Sen gittin gözüm arkada kaldı 
Bb
Canım sıkıldı çabuk gel 
C         Bb  Dm
Tadım kalmadı hemen gel 


Bb          C      Dm
Bir kaç gün içinde dön ne olur 
Bb          C      Dm
Bir kaç gün içinde dön ne olur 


Dm              Am
Bıraktığın gibi burdayım 
C               Bb
Yalnız değilsin yanındayım 
Dm              Bb
Tut elimi tut yanındayım 
Bb              C
Yalnız değilsin yanındayım 


Bb          C      Dm
Bir kaç gün içinde dön ne olur 
Bb          C      Dm
Bir kaç gün içinde dön ne olur 



Solo

--------------------------------------------------------------------
3-5-6-5-3-1-3-5--1-3-5-3-1---1-3-----7-7-8-7-5-3-5-6---3-5-6-3-1-3-5
---------------------------3----------------------------------------
--------------------------------------------------------------------
--------------------------------------------------------------------
--------------------------------------------------------------------


----------------------------------------------0----------------------
3/5/3>1---------------------------------------1----------------------
---------3/4/3>2-2-3--------------------------2----------------------
----------------------------------------------2----------------------
------------------------0-1-3-1-3-1-5-5-1-1---0----------------------
----------------------------------------------0----------------------

not:

">" bu işaret slide anlamına geliyor
"/" slash işaretini koyduğum yerler hammer on, pull off tekniklerini 
belirtiyor. eğer ordaki notalara tek tek basarsanız kulağa yanlış gelebilir.
tab yazmasını bilmediğim için tab terimlerini bilmiyorum. umarım yardımcı
olur. %100 doğrudur
Dön Ne Olur Akor, AkorMerkezi.com'da yayınlanmıştır.
http://www.akormerkezi.com


İçerik Kısa Linki:


Beğendiniz mi? Dön Ne Olur Akor sayfasını Şimdi paylaşın:


Duman - Dön Ne Olur KULLANILAN AKORLAR (Beta)
Amx 0 2 2 1 0x 0 7 5 5 5x 3 2 2 1 0
Bb1 1 3 3 3 1x 1 3 3 3 1x x 0 3 3 1
C0 3 2 0 1 00 3 5 5 5 33 3 2 0 1 0
Dmx 0 0 2 3 1
Şarkıda kullanılan akorların farklı şekillerde basılışlarıdır. (Detaylı bilgi)

Dön Ne Olur şarkısı için amatör kayıtları dinleyin: (Siz de Ekleyin)

Dön Ne Olur Akor için Komoçotoko'dan Gelenler
Aramalar: duman yalnız değilsin yanındayım akor, budala akor kaç kaç, duman şarkilari kac akorlu, sen gittinya canım sıkıldı hemen gel, sen gittin gözüm arkada kaldı, arkadan am ver, duman dön ne olur akor, dön ne olur, dön ne olur akor, am kaçmış don
Duman - Dön Ne Olur için Kullanıcı Görüşleri

yıllar sonra fark ettiğim bir hatayı düzeltmeden geçmeyeyim. tut elimi tut yanındayım kısmınadaki Dm akoru D olacak.


Bu Yoruma Cevap Ver
peaceblues | 16 Kasım 2021 Salı 15:27
güzel olmuş, sağol


Bu Yoruma Cevap Ver
-etten yuva- | 19 Mayıs 2013 Pazar 14:44


Siz de Görüş Bildirin

Yorum yazma alanı Akor Merkezi üyelerine özel bir bölümdür. (Giriş Yap / Üye Ol / Şifremi Hatırlat)


Anket
Pritech soruyor:
Sesini en beğendiğiniz bayan sanatçı?













Sonuçlar | Sonuçlar & Yorumlar
Yeni Anket | Anketler



AkorMerkezi.com © 2022
Gizlilik Politikası - Kullanım Koşulları - Kurallar - Son Yorumlar - Rastgele

GitarAkor.com kolonisidir. Derleme 0,06 saniye.