Akor Tab Söz Çeviri Anasayfası
Akor|Tab|Söz|Nota Arşivi
Gitar Akorları | Tab,Söz ve Nota Anasayfası | En Yeni Şarkılar | En Popüler Şarkılar | Akor Cetveli

Bilgiler
 
Seslendiren ve Şarkı: Duman - Herşeyi Yak
Biçim: Bass Tab, Bass Gitar Tab -
Tarih: 27 Ocak 2003 Pazartesi
Gönderen: ohara
Toplam Okuyan: 25.210 kişi
Bu Ay Okuyan: 210 kişi
Bu Hafta Okuyan: 12 kişi
 
Beğendiniz mi? Herşeyi Yak Bass Tab sayfasını Şimdi paylaşın:

Duman - Herşeyi Yak - Bass Tab


Puanlama:
 (11 kişi)

Herşeyi Yak şarkısının diğer versiyonlarına bakın >>

Metin boyutu: ( + Büyült ) ( - Küçült)   
Song: Herseyi Yak
Artist: Duman
Tabbed by: barbar/antialien(barbaros@lycos.com)
Tuning: E A D G



Intro: Repeat X 2

G---------------------------------------------|
D---------------------------------------------|
A-3/55----3/5555----3/55-------3/5555---------|
E---------------------------------------------|


Repeat x2

G------------------------------------|
D------------------------------------|
A--55555555------3333--11--00--------|
E------------------------------------|

G------------------------------------|
D------------------------------------|
A------------------------------------|
E--55555555--------66666666/33333333-----55555555-67777777---66666666|



Repeat x2
G------------------------------------|
D------------------------------------|
A--5---3---1---0--13333-1111-55555555|
E------------------------------------|




G---------------------------------------------|
D---------------------------------------------|
A-3/55----3/5555----3/55-------3/5555---------|
E---------------------------------------------|


G-----------------------------|
D-----------------------------|
A-----------------------------|
E--3--1--0--1---3--0--11111111|

G---------------------------------------------|
D---------------------------------------------|
A-3/55----3/5555----3/55-------3/5555---------|
E---------------------------------------------|


G-----------------------------|
D-----------------------------|
A-----------------------------|
E--3--1--0--1---3--0--11111111|

Herşeyi Yak Bass Tab, AkorMerkezi.com'da yayınlanmıştır.
http://www.akormerkezi.com


İçerik Kısa Linki:


Beğendiniz mi? Herşeyi Yak Bass Tab sayfasını Şimdi paylaşın:


Herşeyi Yak şarkısı için amatör kayıtları dinleyin: (Siz de Ekleyin)

Herşeyi Yak Bass Tab için Komoçotoko'dan Gelenler
Aramalar: duman herşeyi yak bass cover, her şeyi yak tab, songsterr duman herşeyi yak bas, duman herşeyi yak, heeşeyi yak bass tan, yürekten bass cover, duman her şeyi yak bass, bas gitar tabs, duman herseyo yak bass tab, duman beni yak akor bas
Duman - Herşeyi Yak için Kullanıcı Görüşleri

Bende beceremedim ya .s


Bu Yoruma Cevap Ver
Milker | 15 Ekim 2012 Pazartesi 20:23
@Adamınbiri haklı. Denemeden karar vermeyin ilk gördüğünüzde çıkaramayınca aman olmadı tü pis kaka diyorsunuz. Şarkının tüm kısımları yok fakat doğrudur.


Bu Yoruma Cevap Ver
Baykuş93 | 24 Ağustos 2011 Çarşamba 19:55
ben ritim alamadım.ama yinede sağol emeğin için:s


Bu Yoruma Cevap Ver
fatto | 7 Aralık 2009 Pazartesi 19:34
cix. guitar pro kullanin. daha reel.


Bu Yoruma Cevap Ver
RodieRondel | 24 Mayıs 2009 Pazar 14:20
aha bu ne beaa düzeltn şunu ADAMIN BİRİ eğer gerçekten bass gitar çalıo olsaydın bunun yanlışolduğunun ağzınla ritim tutarak bile anlayabilirdin asıl sen hç denememşişsin bile!!! laf söleme sakın burda kimseye


Bu Yoruma Cevap Ver
...susam... | 10 Eylül 2007 Pazartesi 19:03
kusura bakmada yannış be bilader


Bu Yoruma Cevap Ver
keler | 12 Haziran 2007 Salı 19:29
kardeş ellerine sağlık muhteşem diğerlerine bakma hiç denememişler bence


Bu Yoruma Cevap Ver
adaminbiri | 4 Mayıs 2007 Cuma 20:26
ne bu leyyn


Bu Yoruma Cevap Ver
FoRg_MoN | 6 Nisan 2007 Cuma 16:11
bence yanlışşşşş


Bu Yoruma Cevap Ver
UmTcN | 24 Mart 2007 Cumartesi 22:57
yanlıııış


Bu Yoruma Cevap Ver
cort sp-pj | 2 Kasım 2006 Perşembe 15:18


Siz de Görüş Bildirin

Yorum yazma alanı Akor Merkezi üyelerine özel bir bölümdür. (Giriş Yap / Üye Ol / Şifremi Hatırlat)


Anket
knoxwille soruyor:
Şebnem Ferah'ın en beğendiğiniz albümü hangisidir ?











Sonuçlar | Sonuçlar & Yorumlar
Yeni Anket | Anketler



AkorMerkezi.com © 2022
Gizlilik Politikası - Kullanım Koşulları - Kurallar - Son Yorumlar - Rastgele

GitarAkor.com kolonisidir. Derleme 0,05 saniye.