Akor Tab Söz Çeviri Anasayfası
Akor|Tab|Söz|Nota Arşivi
Gitar Akorları | Tab,Söz ve Nota Anasayfası | En Yeni Şarkılar | En Popüler Şarkılar | Akor Cetveli

Bilgiler
 
Seslendiren ve Şarkı: Duman - Oje
Biçim: Bass Tab, Bass Gitar Tab - HİÇBİRİ
Tarih: 25 Eylül 2011 Pazar
Gönderen: clifffburton
Toplam Okuyan: 5.638 kişi
Bu Ay Okuyan: 65 kişi
Bu Hafta Okuyan: 5 kişi
 
Beğendiniz mi? Oje Bass Tab sayfasını Şimdi paylaşın:

Duman - Oje - Bass Tab


Puanlama:
 (6 kişi)

Oje şarkısının diğer versiyonlarına bakın >>

Metin boyutu: ( + Büyült ) ( - Küçült)   
G|-------------------------------------------------------------
D|-------------------------------------------------------------
A|--0--0-0-X-0-X-0----------------0--0-0-X-0-X-0--------3-#-2--
E|-----------------1--1-1-X-0-X-0----------------1--1-1--------

G|-------------------------------------------------------------
D|-------------------------------------------------------------
A|--0--0-0-X-0-X-0----------------0--0-0-X-0-X-0---------------
E|-----------------1--1-1-X-0-X-0----------------1--1-1-X-0-X-0

G|-------------------------------------------------------------
D|-------------------------------------------------------------
A|--0--0-0-X-0-X-0----------------0--0-0-X-0-X-0---------------
E|-----------------1--1-1-X-0-X-0----------------1--1-1-X-0-X-0

G|-------------------------------------------------------------
D|-------------------------------------------------------------
A|--0--0-0-X-0-X-0----------------0--0-0-X-0-X-0---------------
E|-----------------1--1-1-X-0-X-0----------------1--1-1-X-0-X-0

G|---------------------------------------------------------------------------
D|---------------------------------------------------------------------------
A|--0--0-0-X-0-X-0----------------0--0-0-X-0-X-0--------3--2---0--0-0-X-0-X-0
E|-----------------1--1-1-X-0-X-0----------------1--1-1----------------------

G|-------------------------------------------------------------
D|-------------------------------------------------------------
A|-----------------0--0-0-X-0-X-0----------------0--0-0-X-0-X-0
E|--1--1-1-X-0-X-0----------------1--1-1-X-0-X-0---------------

G|-------------------------------------------------------------
D|-------------------------------------------------------------
A|-----------------0--0-0-X-0-X-0----------------0--0-0-X-0-X-0
E|--1--1-1-X-0-X-0----------------1--1-1-X-0-X-0---------------

G|-------------------------------------------------------------
D|-------------------------------------------------------------
A|-----------------0--0-0-X-0-X-0----------------0--0-0-X-0-X-0
E|--1--1-1-X-0-X-0----------------1--1-1-X-0-X-0---------------

G|----------------------------------------------------------
D|----------------------------------------------------------
A|---------------------------0--0-0-X-0-X-0-----------------
E|--1--1-1-X-0-X-0--0-----------------------1--1-1-X-0-X-0--
Oje Bass Tab, AkorMerkezi.com'da yayınlanmıştır.
http://www.akormerkezi.com


İçerik Kısa Linki:


Beğendiniz mi? Oje Bass Tab sayfasını Şimdi paylaşın:


Oje Bass Tab için Komoçotoko'dan Gelenler
Aramalar: duman tab, duman bass tab, duman oje akor ve tab, duman oje bass, duman oje bass tab, oje tab, oje bass tab, duman oje bass tap, duman bass gitar tabları, oje
Duman - Oje için Kullanıcı Görüşleri

Henüz buraya yazan çizen olmamış. Yorum yapmak için buraya tıklayabilirsiniz.


Siz de Görüş Bildirin

Yorum yazma alanı Akor Merkezi üyelerine özel bir bölümdür. (Giriş Yap / Üye Ol / Şifremi Hatırlat)


Anket
wolf heart soruyor:
En İyi Gitarist ?










Sonuçlar | Sonuçlar & Yorumlar
Yeni Anket | Anketler



AkorMerkezi.com © 2022
Gizlilik Politikası - Kullanım Koşulları - Kurallar - Son Yorumlar - Rastgele

GitarAkor.com kolonisidir. Derleme 0,03 saniye.