Akor Tab Söz Çeviri Anasayfası
Akor|Tab|Söz|Nota Arşivi
Gitar Akorları | Tab,Söz ve Nota Anasayfası | En Yeni Şarkılar | En Popüler Şarkılar | Akor Cetveli

Bilgiler
 
Seslendiren ve Şarkı: Emre Aydın - Beni Unutma
Biçim: TAB - FULL
Tarih: 28 Kasım 2010 Pazar
Gönderen: Yildiztozu
Toplam Okuyan: 4.385 kişi
Bu Ay Okuyan: 28 kişi
Bu Hafta Okuyan: 2 kişi
 
Beğendiniz mi? Beni Unutma Tab sayfasını Şimdi paylaşın:

Emre Aydın - Beni Unutma - Tab


Puanlama:
 (5 kişi)

Beni Unutma şarkısının diğer versiyonlarına bakın >>

Metin boyutu: ( + Büyült ) ( - Küçült)   
Emre Aydın (-Beni Unutma-)


E.---------------0------------1------3------0------

A.--0---------------2------------------------------

D.-----2---------------2----------3------0------0--

G.--------2---------------1------------------------

B.-----------2-------------------------------------

E.--------------------------------------------------

Beni Unutma Tab, AkorMerkezi.com'da yayınlanmıştır.
http://www.akormerkezi.com


İçerik Kısa Linki:


Beğendiniz mi? Beni Unutma Tab sayfasını Şimdi paylaşın:


Beni Unutma Tab için Komoçotoko'dan Gelenler
Aramalar: eylem aktaş beni unutma şarkısın gitar, tab şarkıları unutma şarkı, eylem aktas beni unutma nota, unutma beni tab, emre aydın beni unutma tab, eylem aktaş beni unutma gitar solo, beni unutma, emre aydın - beni unutma (2010) tab, beni unutma eylem aktaş chords, eylem aktaş beni unutma gitar tab
Emre Aydın - Beni Unutma için Kullanıcı Görüşleri

pardon.. böyle olacak sonu..
-----------------------|---------------------|
-----------------------|---------------------|
------------------1----|---------------------|
---------------2-------|--------4------------|
------------2----------|-----4---------------|
-----------------------|--2------------------|


Bu Yoruma Cevap Ver
Sokrat+es | 22 Mayıs 2011 Pazar 23:46
olmamış kardeşim..
E||----------------------|
B||-----------------2----|
G||------------2---------|
D||-------4--------------|
A||----------------------
E||--2-------------------|



----------------------||--------------------|
-----------------0----||--------------------|
-------1----2--------- |-------2------------|
----------------------||--0-----------------|
----------------------||--------------------|
--0-------------------|

-----------------------|---------------------|
-----------------------|---------------------|
------------------1----|---------------------|
---------------2-------|--------4------------|
------------4----------|-----4---------------|
-----------------------|--2------------------|
bak böyle olacak


Bu Yoruma Cevap Ver
Sokrat+es | 22 Mayıs 2011 Pazar 23:43


Siz de Görüş Bildirin

Yorum yazma alanı Akor Merkezi üyelerine özel bir bölümdür. (Giriş Yap / Üye Ol / Şifremi Hatırlat)




Anket
semcix soruyor:
Rodriguez gitar markası sizce kalite olarak ne kadar iyi?











Sonuçlar | Sonuçlar & Yorumlar
Yeni Anket | Anketler





Radyo Dinle
AkorMerkezi.com © 2018
Gizlilik Politikası - Kullanım Koşulları - Kurallar - Son Yorumlar - Rastgele

GitarAkor.com kolonisidir. Derleme 0,04 saniye.