Akor Tab Söz Çeviri Anasayfası
Akor|Tab|Söz|Nota Arşivi
Gitar Akorları | Tab,Söz ve Nota Anasayfası | En Yeni Şarkılar | En Popüler Şarkılar | Akor Cetveli

Bilgiler
 
Seslendiren ve Şarkı: Emre Aydın - Git
Biçim: TAB - FULL
Tarih: 29 Ekim 2010 Cuma
Gönderen: Pusula34
Toplam Okuyan: 7.134 kişi
Bu Ay Okuyan: 19 kişi
Bu Hafta Okuyan: 1 kişi
 
Beğendiniz mi? Git Tab sayfasını Şimdi paylaşın:

Emre Aydın - Git - Tab


Puanlama:
 (10 kişi)

Git şarkısının diğer versiyonlarına bakın >>

Metin boyutu: ( + Büyült ) ( - Küçült)   
Git Gideceksen Bekleme farklı değilsin sende 
e-0----0-2--4---2-0------------------------------
b---------------------4-4---4-5----7-5--4--2-----
g--------------------------------------------2---

Gideceksen Bekleme Adam olmaz dedin senden
b-----------------------------------------2-4--5h2
g-2-4--6--4---4--2-1-------1-1--2--4----1--------

Adam nedir dedim içimden farketmezdi
g-2--2---4--4h6--4--2------4-4-4h8-6-----1--1-2--4

Değişseydim Güvenseydim ya da salı verseydim
g-1--6-8---9h6----2-2---4--6--4-2--4-4-4--6h8-6--8

Git gideceksen bekleme farklı değilsin sende gideceksen bekleme 
e------------------------------2-------------------------------
b-5---5-7--9--7---5--4-4---4-5--5--4--2------------------------
g---------------------------------------2---2-4--6---4---4--2-1
Git Tab, AkorMerkezi.com'da yayınlanmıştır.
http://www.akormerkezi.com


İçerik Kısa Linki:


Beğendiniz mi? Git Tab sayfasını Şimdi paylaşın:


Git şarkısı için amatör kayıtları dinleyin: (Siz de Ekleyin)

Git Tab için Komoçotoko'dan Gelenler
Aramalar: gideceksen bekleme tab, emre aydın git gideceksen bekleme tab, emre aydın git tab, emre aydın git gideceksen bekleme, git tab full, git tab, git gideceksen tab, git gideceksen bekleme tab
Emre Aydın - Git için Kullanıcı Görüşleri

çok güzel tebrikler :)


Bu Yoruma Cevap Ver
yagmur özden | 09 Eylül 2013 Pazartesi 15:49
tebrikler


Bu Yoruma Cevap Ver
nicik | 15 Mart 2011 Salı 18:30
Çok saol güzel çıkartmışsın


Bu Yoruma Cevap Ver
NiCKyOq | 24 Şubat 2011 Perşembe 14:27
teşekkürler iyi çıkartmışsın arkadaşım bence ben daha acemi olmama rağmen çalabildim :D ve tutuyorda :D


Bu Yoruma Cevap Ver
angelface41 | 01 Kasım 2010 Pazartesi 20:13


Siz de Görüş Bildirin

Yorum yazma alanı Akor Merkezi üyelerine özel bir bölümdür. (Giriş Yap / Üye Ol / Şifremi Hatırlat)




Anket
c_e_r_e_n soruyor:
Sevgiliniz Gitardan Nefret Etse Size Çalmamanızı Sölese Tepkiniz Ne Olurdu











Sonuçlar | Sonuçlar & Yorumlar
Yeni Anket | Anketler





Radyo Dinle
AkorMerkezi.com © 2018
Gizlilik Politikası - Kullanım Koşulları - Kurallar - Son Yorumlar - Rastgele

GitarAkor.com kolonisidir. Derleme 0,02 saniye.