Akor Tab Söz Çeviri Anasayfası
Akor|Tab|Söz|Nota Arşivi
Gitar Akorları | Tab,Söz ve Nota Anasayfası | En Yeni Şarkılar | En Popüler Şarkılar | Akor Cetveli

Bilgiler
 
Seslendiren ve Şarkı: Erkin Koray - Arap Saci
Biçim: Bass Tab, Bass Gitar Tab - SOLO
Tarih: 29 Eylül 2012 Cumartesi
Gönderen: revenge time
Toplam Okuyan: 2.238 kişi
Bu Ay Okuyan: 10 kişi
Bu Hafta Okuyan: 1 kişi
 
Beğendiniz mi? Arap Saci Bass Tab sayfasını Şimdi paylaşın:

Erkin Koray - Arap Saci - Bass Tab


Puanlama:
 (1 kişi)

Arap Saci şarkısının diğer versiyonlarına bakın >>

Metin boyutu: ( + Büyült ) ( - Küçült)   
Erkin Koray - Arap Saçı 



Bass
                                                           
E||------|------|------|------|------|------|------|------|
B||------|------|------|------|------|------|------|------|
G||------|------|------|------|------|------|------|------|
D||------|------|------|------|------|------|------|------|
A||------|------|------|------|------|------|------|------|
E||------|------|------|------|------|------|------|------|


                                                                     
----------------------|----------------------|----------------------|
----------------------|----------------------|----------------------|
----------------------|----------------------|----------------------|
----------------------|----------------------|----------------------|
----------------------|----------------------|----------------------|
--3----3----3----3----|--4----4----2----2----|--3----3----3----3----|


                                                                     
----------------------|----------------------|----------------------|
----------------------|----------------------|----------------------|
----------------------|----------------------|----------------------|
----------------------|----------------------|----------------------|
----------------------|----------------------|----------------------|
--3----3----3----3----|--3----3----3----3----|--4----4----2----2----|


                                                                       
----------------------|----------------------||-----------------------|
----------------------|----------------------||-----------------------|
----------------------|----------------------||*----------------------|
----------------------|----------------------||*----------------------|
----------------------|----------------------||-----------------------|
--3----3----3----3----|--3----3----3----3----||---3----3----3----3----|


                                                                     
----------------------|----------------------|----------------------|
----------------------|----------------------|----------------------|
----------------------|----------------------|----------------------|
----------------------|----------------------|----------------------|
----------------------|--5----5----5----5----|--5----5----5----5----|
--3----3----3----3----|----------------------|----------------------|


                                                                     
----------------------|----------------------|----------------------|
----------------------|----------------------|----------------------|
----------------------|----------------------|----------------------|
--5----5----5----5----|--5----5----6----8----|--8----8----8----8----|
----------------------|----------------------|----------------------|
----------------------|----------------------|----------------------|


                                                                       
-----------------------||----------------------|----------------------|
-----------------------||----------------------|----------------------|
----------------------*||----------------------|----------------------|
--8----8----6----5----*||----------------------|----------------------|
-----------------------||----------------------|----------------------|
-----------------------||--3----3----3----3----|--3----3----3----3----|


                                                                     
----------------------|----------------------|----------------------|
----------------------|----------------------|----------------------|
----------------------|----------------------|----------------------|
----------------------|----------------------|----------------------|
----------------------|----------------------|----------------------|
--4----4----4----4----|--4----4----4----4----|--3----3----3----3----|


                                                                     
----------------------|----------------------|----------------------|
----------------------|----------------------|----------------------|
----------------------|----------------------|----------------------|
----------------------|----------------------|----------------------|
----------------------|----------------------|----------------------|
--3----3----3----3----|--6----6----6----6----|--6----6----4----3----|


                                                                     
----------------------|----------------------|----------------------|
----------------------|----------------------|----------------------|
----------------------|----------------------|----------------------|
----------------------|----------------------|----------------------|
----------------------|----------------------|----------------------|
--3----3----3----3----|--3----3----3----3----|--3----3----3----3----|


                                                                     
----------------------|----------------------|----------------------|
----------------------|----------------------|----------------------|
----------------------|----------------------|----------------------|
----------------------|----------------------|----------------------|
----------------------|----------------------|----------------------|
--3----3----3----3----|--3----3----3----3----|--3----3----3----3----|


                                                                     
----------------------|----------------------|----------------------|
----------------------|----------------------|----------------------|
----------------------|----------------------|----------------------|
----------------------|----------------------|----------------------|
----------------------|----------------------|----------------------|
--3----3----3----3----|--3----3----3----3----|--3----3----3----3----|


                                                                     
----------------------|----------------------|----------------------|
----------------------|----------------------|----------------------|
----------------------|----------------------|----------------------|
----------------------|----------------------|----------------------|
----------------------|--5----5----5----5----|--5----5----5----5----|
--3----3----3----3----|----------------------|----------------------|


                                                                     
----------------------|----------------------|----------------------|
----------------------|----------------------|----------------------|
----------------------|----------------------|----------------------|
----------------------|----------------------|----------------------|
--5----5----5----5----|--5----5----5----5----|----------------------|
----------------------|----------------------|--6----6----6----6----|


                                                                       
----------------------|-------------------|------|--------------------|
----------------------|-------------------|------|--------------------|
----------------------|-------------------|------|--------------------|
----------------------|-------------------|------|--------------------|
----------------------|-------------------|------|--------------------|
--4----4----4----4----|--3----------------|------|------3--------3----|


                                                               
--------------------|--------------------|--------------------|
--------------------|--------------------|--------------------|
--------------------|--------------------|--------------------|
--------------------|--------------------|--------------------|
--------------------|--------------------|--------------------|
--4--------2--------|------3--------3----|--4--------2--------|


                                                                          
--------------------|--------------------|--------------------|----------|
--------------------|--------------------|--------------------|----------|
--------------------|--------------------|--------------------|----------|
--------------------|--------------------|--------------------|----------|
--------------------|--------------------|--------------------|----------|
------3--------3----|--4--------2--------|------3--------3----|----------|


                                                               
--------------------|--------------------|--------------------|
--------------------|--------------------|--------------------|
--------------------|--------------------|--------------------|
--------------------|--------------------|--------------------|
------5--------5----|--6--------4--------|------5--------5----|
--------------------|--------------------|--------------------|


                                                               
--------------------|--------------------|--------------------|
--------------------|--------------------|--------------------|
--------------------|--------------------|--------------------|
--------------------|--------------------|--------------------|
--6--------4--------|------5--------5----|--6--------4--------|
--------------------|--------------------|--------------------|


                                                                 
--------------------|--------------------|----------------------|
--------------------|--------------------|----------------------|
--------------------|--------------------|----------------------|
--------------------|--------------------|----------------------|
------5--------5----|--6--------4--------|----------------------|
--------------------|--------------------|--3----3----3----3----|


                                                                     
----------------------|----------------------|----------------------|
----------------------|----------------------|----------------------|
----------------------|----------------------|----------------------|
----------------------|----------------------|----------------------|
----------------------|----------------------|----------------------|
--4----4----2----2----|--3----3----3----3----|--3----3----3----3----|


                                                                       
|-----------------------|----------------------|----------------------|
|-----------------------|----------------------|----------------------|
|*----------------------|----------------------|----------------------|
|*----------------------|----------------------|----------------------|
|-----------------------|----------------------|--5----5----5----5----|
|---3----3----3----3----|--3----3----3----3----|----------------------|


                                                                     
----------------------|----------------------|----------------------|
----------------------|----------------------|----------------------|
----------------------|----------------------|----------------------|
----------------------|--5----5----5----5----|--5----5----6----8----|
--5----5----5----5----|----------------------|----------------------|
----------------------|----------------------|----------------------|


                                                                       
----------------------|-----------------------||----------------------|
----------------------|-----------------------||----------------------|
----------------------|----------------------*||----------------------|
--8----8----8----8----|--8----8----6----5----*||----------------------|
----------------------|-----------------------||----------------------|
----------------------|-----------------------||--3----3----3----3----|


                                                                     
----------------------|----------------------|----------------------|
----------------------|----------------------|----------------------|
----------------------|----------------------|----------------------|
----------------------|----------------------|----------------------|
----------------------|----------------------|----------------------|
--3----3----3----3----|--4----4----4----4----|--4----4----4----4----|


                                                                     
----------------------|----------------------|----------------------|
----------------------|----------------------|----------------------|
----------------------|----------------------|----------------------|
----------------------|----------------------|----------------------|
----------------------|----------------------|----------------------|
--3----3----3----3----|--3----3----3----3----|--6----6----6----6----|


                                                                     
----------------------|----------------------|----------------------|
----------------------|----------------------|----------------------|
----------------------|----------------------|----------------------|
----------------------|----------------------|----------------------|
----------------------|----------------------|----------------------|
--6----6----4----3----|--3----3----3----3----|--3----3----3----3----|


                                                                     
----------------------|----------------------|----------------------|
----------------------|----------------------|----------------------|
----------------------|----------------------|----------------------|
----------------------|----------------------|----------------------|
----------------------|----------------------|----------------------|
--3----3----3----3----|--3----3----3----3----|--3----3----3----3----|


                                                                     
----------------------|----------------------|----------------------|
----------------------|----------------------|----------------------|
----------------------|----------------------|----------------------|
----------------------|----------------------|----------------------|
----------------------|----------------------|----------------------|
--3----3----3----3----|--3----3----3----3----|--3----3----3----3----|


                                                                     
----------------------|----------------------|----------------------|
----------------------|----------------------|----------------------|
----------------------|----------------------|----------------------|
----------------------|----------------------|----------------------|
----------------------|----------------------|--5----5----5----5----|
--3----3----3----3----|--3----3----3----3----|----------------------|


                                                                     
----------------------|----------------------|----------------------|
----------------------|----------------------|----------------------|
----------------------|----------------------|----------------------|
----------------------|----------------------|----------------------|
--5----5----5----5----|--5----5----5----5----|--5----5----5----5----|
----------------------|----------------------|----------------------|


                                                                                
----------------------|----------------------|-------------------|------|------|
----------------------|----------------------|-------------------|------|------|
----------------------|----------------------|-------------------|------|------|
----------------------|----------------------|-------------------|------|------|
----------------------|----------------------|-------------------|------|------|
--6----6----6----6----|--4----4----4----4----|--3----------------|------|------|


                                                                   
------|------|------|----------------------|----------------------|
------|------|------|----------------------|----------------------|
------|------|------|----------------------|----------------------|
------|------|------|----------------------|----------------------|
------|------|------|----------------------|----------------------|
------|------|------|--3----3----3----3----|--3----3----3----3----|


                                                                     
----------------------|----------------------|----------------------|
----------------------|----------------------|----------------------|
----------------------|----------------------|----------------------|
----------------------|----------------------|----------------------|
----------------------|----------------------|----------------------|
--3----3----3----3----|--3----3----3----3----|--3----3----3----3----|


                                                                     
----------------------|----------------------|----------------------|
----------------------|----------------------|----------------------|
----------------------|----------------------|----------------------|
----------------------|----------------------|----------------------|
----------------------|----------------------|----------------------|
--3----3----3----3----|--3----3----3----3----|--3----3----3----3----|


                                                                     
----------------------|----------------------|----------------------|
----------------------|----------------------|----------------------|
----------------------|----------------------|----------------------|
----------------------|----------------------|----------------------|
--5----5----5----5----|--5----5----5----5----|--5----5----5----5----|
----------------------|----------------------|----------------------|


                                                                     
----------------------|----------------------|----------------------|
----------------------|----------------------|----------------------|
----------------------|----------------------|----------------------|
----------------------|----------------------|----------------------|
--5----5----5----5----|----------------------|----------------------|
----------------------|--6----6----6----6----|--4----4----4----4----|


                                                                         
-------------------|------|----------------------|----------------------|
-------------------|------|----------------------|----------------------|
-------------------|------|----------------------|----------------------|
-------------------|------|----------------------|----------------------|
-------------------|------|----------------------|----------------------|
--3----------------|------|--3----3----3----3----|--4----4----2----2----|


                                                                     
----------------------|----------------------|----------------------|
----------------------|----------------------|----------------------|
----------------------|----------------------|----------------------|
----------------------|----------------------|----------------------|
----------------------|----------------------|----------------------|
--3----3----3----3----|--3----3----3----3----|--3----3----3----3----|


                                                                     
----------------------|----------------------|----------------------|
----------------------|----------------------|----------------------|
----------------------|----------------------|----------------------|
----------------------|----------------------|----------------------|
----------------------|----------------------|----------------------|
--4----4----2----2----|--3----3----3----3----|--3----3----3----3----|


                                                                     
----------------------|----------------------|----------------------|
----------------------|----------------------|----------------------|
----------------------|----------------------|----------------------|
----------------------|----------------------|----------------------|
----------------------|----------------------|----------------------|
--3----3----3----3----|--4----4----2----2----|--3----3----3----3----|


                                                                     
----------------------|----------------------|----------------------|
----------------------|----------------------|----------------------|
----------------------|----------------------|----------------------|
----------------------|----------------------|----------------------|
----------------------|----------------------|----------------------|
--3----3----3----3----|--3----3----3----3----|--4----4----2----2----|


                                            
----------------------|-------------------||
----------------------|-------------------||
----------------------|-------------------||
----------------------|-------------------||
----------------------|-------------------||
--3----3----3----3----|--3----------------||

Arap Saci Bass Tab, AkorMerkezi.com'da yayınlanmıştır.
http://www.akormerkezi.com


İçerik Kısa Linki:


Beğendiniz mi? Arap Saci Bass Tab sayfasını Şimdi paylaşın:


Arap Saci Bass Tab için Komoçotoko'dan Gelenler
Aramalar: arap saçı tab, bass solo, erkin koray, arap saçı, arap saçı akor, erkin koray bass gitar
Erkin Koray - Arap Saci için Kullanıcı Görüşleri

Henüz buraya yazan çizen olmamış. Yorum yapmak için buraya tıklayabilirsiniz.


Siz de Görüş Bildirin

Yorum yazma alanı Akor Merkezi üyelerine özel bir bölümdür. (Giriş Yap / Üye Ol / Şifremi Hatırlat)


Anket
jeovasanctustr soruyor:
Sizce hangisi daha iyi ?








Sonuçlar | Sonuçlar & Yorumlar
Yeni Anket | Anketler



AkorMerkezi.com © 2022
Gizlilik Politikası - Kullanım Koşulları - Kurallar - Son Yorumlar - Rastgele

GitarAkor.com kolonisidir. Derleme 0,06 saniye.