Akor Tab Söz Çeviri Anasayfası
Akor|Tab|Söz|Nota Arşivi
Gitar Akorları | Tab,Söz ve Nota Anasayfası | En Yeni Şarkılar | En Popüler Şarkılar | Akor Cetveli

Bilgiler
 
Seslendiren ve Şarkı: Erkin Koray - Copculer
Biçim: Bass Tab, Bass Gitar Tab - SOLO
Tarih: 29 Eylül 2012 Cumartesi
Gönderen: Rtwo
Toplam Okuyan: 2.445 kişi
Bu Ay Okuyan: 35 kişi
Bu Hafta Okuyan: 3 kişi
 
Beğendiniz mi? Copculer Bass Tab sayfasını Şimdi paylaşın:

Erkin Koray - Copculer - Bass Tab


Puanlama:
 (1 kişi)

Copculer şarkısının diğer versiyonlarına bakın >>

Metin boyutu: ( + Büyült ) ( - Küçült)   

GİRİŞ..........................

solo :
  D ---5-7-5-8-7-5-3-----3-5-3-7-5-3-1----0-1-3-5-3-1-0--1-3-----0-1-3-5-3-1-0]x2

------------------------------------
                
Aşktan yana şansım yok
Ağlıyorum derdim çok
Aşkımı kaybetmişim--------]
                          ]x2
Sordum sordum bulan yok---] 

----------------------------------
________________________________________
                                       |
d|--------------------------------I    |
a|-5-7--5-8-7--5-------5--7-------I    |
e|---------------8--8-------------I    |
                                       |
dün gece çok aradım                    |
                                       |
d|--------------------------------I    |
a|----5-----7--5----------------5-I    |
e|--8---8---------8---6--6---8----I    |
                                       |X2
aradım bulamadım                       |
                                       |
d|--------------------------------I    |
a|--------5-----------------------I    |
e|-5-6--8---8--6--5--6--8---------I    |
                                       |
körolası çöpçüler                      | 
                                       |
d|--------------------------------I    |
a|--------5-----------------------I    |
e|-5--6-8----8--6--5--------------I    |
                                       |
aşkımı süpürmüşler.................    |
________________________________________

[-----------------------------------]

solo :
d ---5-7-5-8-7-5-3-----3-5-3-7-5-3-1----0-1-3-5-3-1-0--1-3----0-1-3-5-3-1-0----I[]x2

[----------------------------------]

___________________________________
d|--7--5--7--5--7--5-----------I   |
a|-------------------8-8-7-----I   |
e|-----------------------------I   |
sokaklarda ne ararsın              |
                                   |
                                   |X2
d|5---5---7---5----------------I   |
a|---8--8-------8-7--5---------I   |
e|-----------------------------I   |
                                   |
beni kimden sorarsın               | 
___________________________________


___________________________________________________
d|----------------------------------------------|  |
a|--8-7-8-7-5-7-7-5----------------5-----5------|  |X 2
e|------------------8--6--5--6--8-----8---6-5-5-|  |
                                                   |
ben düştüm aşk ateşine sende düşme yanarsın        |
___________________________________________________


__________________________________________
d|--------------------------------I      |
a|-5-7--5-8-7--5-------5--7-------I      |
e|---------------8--8-------------I      |
                                         |
dün gece çok ağladım                     |
                                         |
d|--------------------------------I      |
a|----5-----7--5----------------5-I      |
e|--8---8---------8---6--6---8----I      |
                                         |
aradım bulamadım                         |
                                         |
d|--------------------------------I      |
a|--------5-----------------------I      |X3(X2den sonra arada aaaa çekiyorsunuz x3 atıyorsunuz)
e|-5-6--8---8--6--5--6--8---------I      |
                                         |
körolası çöpçüler                        | 
                                         |
d|--------------------------------I      |
a|--------5-----------------------I      |
e|-5--6-8----8--6--5--------------I      |
                                         |
aşkımı süpürmüşler.................      |
                                         |
_________________________________________
Copculer Bass Tab, AkorMerkezi.com'da yayınlanmıştır.
http://www.akormerkezi.com


İçerik Kısa Linki:


Beğendiniz mi? Copculer Bass Tab sayfasını Şimdi paylaşın:


Copculer Bass Tab için Komoçotoko'dan Gelenler
Aramalar: erkin koray çöpçüler bass cover, erkin koray çöpçüler gitar notaları, çöpçüler aşkımı süpürmüşler tab, çöpçüler alors solo, aşkımızı süpürmüşler gitar notaları, çopçüler şarkısının solo gitar notaları, ogün sanlısoy çöpçüler sözleri, askımızı supurmusler notaları gıtar, çöpçüler tab, kahrolası çöpçüler akor
Erkin Koray - Copculer için Kullanıcı Görüşleri

Henüz buraya yazan çizen olmamış. Yorum yapmak için buraya tıklayabilirsiniz.


Siz de Görüş Bildirin

Yorum yazma alanı Akor Merkezi üyelerine özel bir bölümdür. (Giriş Yap / Üye Ol / Şifremi Hatırlat)


Anket
Zakkumcu soruyor:
Yüksek Sadakat Grubunun En İyi Solisti ?








Sonuçlar | Sonuçlar & Yorumlar
Yeni Anket | Anketler



AkorMerkezi.com © 2022
Gizlilik Politikası - Kullanım Koşulları - Kurallar - Son Yorumlar - Rastgele

GitarAkor.com kolonisidir. Derleme 0,05 saniye.