Akor Tab Söz Çeviri Anasayfası
Akor|Tab|Söz|Nota Arşivi
Gitar Akorları | Tab,Söz ve Nota Anasayfası | En Yeni Şarkılar | En Popüler Şarkılar | Akor Cetveli

Bilgiler
 
Seslendiren ve Şarkı: Ferhan Şensoy - Ütopyalar Güzeldir
Biçim: TAB - HİÇBİRİ
Tarih: 21 Kasım 2018 Çarşamba
Gönderen: tabpaylaşım
Toplam Okuyan: 0 kişi
Bu Ay Okuyan: 0 kişi
Bu Hafta Okuyan: 0 kişi
 
Beğendiniz mi? Ütopyalar Güzeldir Tab sayfasını Şimdi paylaşın:

Ferhan Şensoy - Ütopyalar Güzeldir - Tab


Puanlama:
 (0 kişi)


Metin boyutu: ( + Büyült ) ( - Küçült)   

E----------------------------X2
B----------------------------
G---2-0----~-0------0--------
D-0-----3-2-3---2-3---3-2-0--
A----------------------------
E----------------------------

E----------------------------X2
B----------------------------
G--------~-----0--0----------
D-3-3-3-2--3-2--3--3-2-0-2-3-
A----------------------------
E----------------------------

E----------------------------X2
B-----------------------------
G-2-2-0---0--~----------0-0-2-
D-------3---3-2-3-3-3-3-------
A-----------------------------
E-----------------------------

E--------------------------------X2
B--------------------------------
G-2-2-0---0--~-------------------
D-------3----3-2--2-2-2-3--0-3-2-
A--------------------------------
E--------------------------------

E----------------------------X2
B----------------------------
G---2-0----~-0------0--------
D-0-----3-2-3---2-3---3-2-0--
A----------------------------
E----------------------------

E------------------------------X2
B------------------------------
G--------~----0---0------------
D-3-3-3-2-3-2---3--3-2--0-2-3--
A------------------------------
E------------------------------
Ütopyalar Güzeldir Tab, AkorMerkezi.com'da yayınlanmıştır.
http://www.akormerkezi.com


İçerik Kısa Linki:


Beğendiniz mi? Ütopyalar Güzeldir Tab sayfasını Şimdi paylaşın:


Ütopyalar Güzeldir Tab için Komoçotoko'dan Gelenler
Ferhan Şensoy - Ütopyalar Güzeldir için Kullanıcı Görüşleri

Henüz buraya yazan çizen olmamış. Yorum yapmak için buraya tıklayabilirsiniz.


Siz de Görüş Bildirin

Yorum yazma alanı Akor Merkezi üyelerine özel bir bölümdür. (Giriş Yap / Üye Ol / Şifremi Hatırlat)




Anket
c_e_r_e_n soruyor:
Sevgiliniz Gitardan Nefret Etse Size Çalmamanızı Sölese Tepkiniz Ne Olurdu











Sonuçlar | Sonuçlar & Yorumlar
Yeni Anket | Anketler




Radyo Dinle
AkorMerkezi.com © 2018
Gizlilik Politikası - Kullanım Koşulları - Kurallar - Son Yorumlar - Rastgele

GitarAkor.com kolonisidir. Derleme 0,02 saniye.