Akor Tab Söz Çeviri Anasayfası
Akor|Tab|Söz|Nota Arşivi
Gitar Akorları | Tab,Söz ve Nota Anasayfası | En Yeni Şarkılar | En Popüler Şarkılar | Akor Cetveli

Bilgiler
 
Seslendiren ve Şarkı: Fettah Can - Duvar
Biçim: Bass Tab, Bass Gitar Tab - FULL
Tarih: 29 Eylül 2012 Cumartesi
Gönderen: BreosE
Toplam Okuyan: 3.458 kişi
Bu Ay Okuyan: 50 kişi
Bu Hafta Okuyan: 4 kişi
 
Beğendiniz mi? Duvar Bass Tab sayfasını Şimdi paylaşın:
DİKKAT!
Duvar Bass Tab sayfasını düzgün görüntüleyemiyor olabilirsiniz.
Eğer böyle bir sıkıntınız varsa tıklayın.

Fettah Can - Duvar - Bass Tab


Puanlama:
 (4 kişi)

Duvar şarkısının diğer versiyonlarına bakın >>

Metin boyutu: ( + Büyült ) ( - Küçült)   
 ooooooo....
G:------------------------------------------------------------------------------------
D:------------------------------------------------------------------------------------
A:15/3--3-3------1-1--3---------------------------------------------------------------
E:-----4-4----------------------------------------------------------------------------

ooooooo....
G:------------------------------------------------------------------------------------
D:------------------------------------------------------------------------------------
A:--------1-1--------3-3--------------------------------------------------------------
E:--4-4--------3-3--------------------------------------------------------------------

Seninle bir daha aynı yolda yürümem 
G:------------------------------------------------------------------------------------
D:------------------------------------------------------------------------------------
A:--3-------------------1-1------3----------------------------------------------------
E:------------4-----------------------------------------------------------------------

Seninle yürüyene yolda tuzakların var 
G:------------------------------------------------------------------------------------
D:------------------------------------------------------------------------------------
A:--3-------------1-1--------------3--------------------------------------------------
E:------------4-----------------------------------------------------------------------

 Bir daha asla dokunmam tenine 
G:------------------------------------------------------------------------------------
D:------------------------------------------------------------------------------------
A:--3-------------1-1-------3---------------------------------------------------------
E:----------4-------------------------------------------------------------------------

Senin teninden önce duvarların var
G:------------------------------------------------------------------------------------
D:------------------------------------------------------------------------------------
A:--3-------------1-1------------3----------------------------------------------------
E:------------4-----------------------------------------------------------------------



Ben o duvarlara çarpa çarpa nasır tuttum 
G:------------------------------------------------------------------------------------
D:------------------------------------------------------------------------------------
A:-3-3-------------------1-----1------------------------------------------------------
E:--------------1-1-------------------------------------------------------------------

Ağlaya ağlaya yosun tuttum 
G:------------------------------------------------------------------------------------
D:------------------------------------------------------------------------------------
A:--------1-1--------3----------------------------------------------------------------
E:--4-4--------3-3--------------------------------------------------------------------



Derin bir nefes alır gibi batıyoruz yükümüz ağır 
G:------------------------------------------------------------------------------------
D:------------------------------------------------------------------------------------
A:--3-------------------------1-------------------------------------------------------
E:----------------4-----------------------3-------------------------------------------

Yeni bir söz söylemek için ölmek mi gerekir 
G:------------------------------------------------------------------------------------
D:------------------------------------------------------------------------------------
A:-1--------------------------------------3-------------------------------------------
E:------------4--------------3--------------------------------------------------------

Hadi bir cesaret sen de taşın altına koy elini
G:------------------------------------------------------------------------------------
D:------------------------------------------------------------------------------------
A:-3--------------------1-------------------------------------------------------------
E:------------4-------------------------3---------------------------------------------

 İnadına inadına sevişmeli bağır çağır
G:------------------------------------------------------------------------------------
D:------------------------------------------------------------------------------------
A:-1------------------------------3---------------------------------------------------
E:------------4-----------3-----------------------------------------------------------



ooooooo....
G:------------------------------------------------------------------------------------
D:------------------------------------------------------------------------------------
A:15/3--3-3------1-1--3---------------------------------------------------------------
E:-----4-4----------------------------------------------------------------------------

ooooooo....
G:------------------------------------------------------------------------------------
D:------------------------------------------------------------------------------------
A:--------1-1--------3-3--------------------------------------------------------------
E:--4-4--------3-3--------------------------------------------------------------------

Kendinizde oktavlar eklerseniz daha hoş olur.İlk çıkardığım tab olduğu için yanlışlarım olabilir kusura bakmay
ın. yorumlarınızı bekliyorum :)
Duvar Bass Tab, AkorMerkezi.com'da yayınlanmıştır.
http://www.akormerkezi.com


İçerik Kısa Linki:


Beğendiniz mi? Duvar Bass Tab sayfasını Şimdi paylaşın:


Duvar Bass Tab için Komoçotoko'dan Gelenler
Aramalar: fettah can duvar, fettah can dddddddd duvar, fettah can duvar bass duvar, Fettah canın bass, fettah can duvar söz akorları, duvar fettah can akor, fettah can, fettah can bass, fettah can akor merkezi, duvar tab
Fettah Can - Duvar için Kullanıcı Görüşleri

Arkadaşlar yorum yapın ya :D


Bu Yoruma Cevap Ver
BreosE | 19 Şubat 2013 Salı 19:49


Siz de Görüş Bildirin

Yorum yazma alanı Akor Merkezi üyelerine özel bir bölümdür. (Giriş Yap / Üye Ol / Şifremi Hatırlat)


Anket
kardelen-a soruyor:
Pretty Little Liars?











Sonuçlar | Sonuçlar & Yorumlar
Yeni Anket | Anketler



AkorMerkezi.com © 2022
Gizlilik Politikası - Kullanım Koşulları - Kurallar - Son Yorumlar - Rastgele

GitarAkor.com kolonisidir. Derleme 0,03 saniye.