Akor Tab Söz Çeviri Anasayfası
Akor|Tab|Söz|Nota Arşivi
Gitar Akorları | Tab,Söz ve Nota Anasayfası | En Yeni Şarkılar | En Popüler Şarkılar | Akor Cetveli

Bilgiler
 
Seslendiren ve Şarkı: Film Müzikleri - Cendere
Biçim: TAB -
Tarih: 30 Mayıs 2005 Pazartesi
Gönderen: otherside_rhcp8
Toplam Okuyan: 38.954 kişi
Bu Ay Okuyan: 502 kişi
Bu Hafta Okuyan: 45 kişi
 
Beğendiniz mi? Cendere Tab sayfasını Şimdi paylaşın:

Film Müzikleri - Cendere - Tab


Puanlama:
 (12 kişi)

Cendere şarkısının diğer versiyonlarına bakın >>

Metin boyutu: ( + Büyült ) ( - Küçült)   
GİRİŞ

e-----------------------------------------------------------------
b-----------------------------------------------------------------
g-----------------------------------------------------------------
d----7---7---9---9---10---10----9----9---7---7---9---9---5---5---9
a--7---7---7---7---7----7----7----7----7---7---7---7---7---7---7--
e-----------------------------------------------------------------

DEVAMI

e-----------------------------------------------------------------
b-----------------------------------------------------------------
g-----------------------------------------------------------------
d--7----7---9---9---10---10---9---9---7--7---9--9---5---5---7-----
a--7----7---7---7---7----7----7---7---7--7---7--7---7---7---7-----
e-----------------------------------------------------------------

*NOT*:Çift sesli çalınıyo önce zor gelebilir ama çok güzel oluyo



Tabbed By Furkan ÇELİKTAŞ 
otherside_rhcp8@yahoo.com

Cendere Tab, AkorMerkezi.com'da yayınlanmıştır.
http://www.akormerkezi.com


İçerik Kısa Linki:


Beğendiniz mi? Cendere Tab sayfasını Şimdi paylaşın:


Cendere Tab için Komoçotoko'dan Gelenler
Aramalar: kısa cendere müziği, cendere 2005, cendere klasik gitar akorları, kurtlar vadisi gitar tabları, kurtlar vadisi cendere gitar notaları, cendere gitar tab kurtlar vadisi, gitar tablari cendere, kurtlar vadisi akor tap, kurtlar vadisi gitar akorları ve ritim, cendere fon müziği
Film Müzikleri - Cendere için Kullanıcı Görüşleri

19 Mart 2011 Cumartesi tarihinde Newquer yazmıştı:
08 Ocak 2010 Cuma tarihinde scre@m yazmıştı:

a---------------------------------------------------------------------------------------------
e---7---7---7---7---9----9----9----9----10----10---10---10---9----9----9----9--------


a---------------------------------------------------------------------------------------------
e---7---7---7---7---9----9----9----9----10----10---10---10---9----9----9----9--------

a---------------------------------------------------------------------------------------------------------------------------------
e----7-7-7-7--------9-9-9-9--------10-10-10-10---------9-9-9-9-------7-7-7-7-------9-9-9-9--------5-5-5-5------7--



a---------------------------------------------------------------------------------------------------------------------------------
e----7-7-7-7--------9-9-9-9--------10-10-10-10---------9-9-9-9-------7-7-7-7-------9-9-9-9--------5-5-5-5------7--

bende böyle çalıyorum...
teşkkürler.İstediğim Buydu
sağol kardeş bu işte


Bu Yoruma Cevap Ver
вяку αη∂ яσ¢к | 19 Mayıs 2011 Perşembe 22:40
08 Ocak 2010 Cuma tarihinde scre@m yazmıştı:

a---------------------------------------------------------------------------------------------
e---7---7---7---7---9----9----9----9----10----10---10---10---9----9----9----9--------


a---------------------------------------------------------------------------------------------
e---7---7---7---7---9----9----9----9----10----10---10---10---9----9----9----9--------

a---------------------------------------------------------------------------------------------------------------------------------
e----7-7-7-7--------9-9-9-9--------10-10-10-10---------9-9-9-9-------7-7-7-7-------9-9-9-9--------5-5-5-5------7--



a---------------------------------------------------------------------------------------------------------------------------------
e----7-7-7-7--------9-9-9-9--------10-10-10-10---------9-9-9-9-------7-7-7-7-------9-9-9-9--------5-5-5-5------7--

bende böyle çalıyorum...
teşkkürler.İstediğim Buydu


Bu Yoruma Cevap Ver
Newquer | 19 Mart 2011 Cumartesi 17:23
09 Aralık 2009 Çarşamba tarihinde duman_ist yazmıştı:
Beyler bnm çıkardgm kadarıyla şöyle bnce en doğrusu
e--2-2-2--4-4-4--5-5-5--4-4-4--2-2-2--4-4-4--0-0-0-2
budur bide bakn :D
Aslında Güzel olmuş


Bu Yoruma Cevap Ver
Newquer | 19 Mart 2011 Cumartesi 16:06
a
e- 3 3 3 5 5 5 6 6 6 5 5 5 3 3 3 5 5 5 1 1 1 3 3 3


Bu Yoruma Cevap Ver
mericvatansever | 15 Ekim 2010 Cuma 19:23
e-----------------------------------------------------------------
b-----------------------------------------------------------------
g-----------------------------------------------------------------
d-----------------------------------------------------------------
a---12---12--12---14----14-14--15----15-15--14--14-14--12----12--12---14----14-14----10-10---12-----------
e---0------0---0-----0------0--0----0-----0---0---0---0---0----0-----0----0----0------0--0------0--0-----0---


Bu Yoruma Cevap Ver
kayatek | 6 Ekim 2010 Çarşamba 17:56
beyler en güzeli arkadaşın otherside nin koydugu. sizinkiler tek tel oldugu için çok basit. çift tel daha güzel geliyo hem kulaga. ve hepinizin ki dogru çnkü notalar aynı kalınlıkları farklı sadece lütfen tartışmayın böyle bu hayır bu diye.


Bu Yoruma Cevap Ver
halit23 | 4 Haziran 2010 Cuma 21:20

a---------------------------------------------------------------------------------------------
e---7---7---7---7---9----9----9----9----10----10---10---10---9----9----9----9--------


a---------------------------------------------------------------------------------------------
e---7---7---7---7---9----9----9----9----10----10---10---10---9----9----9----9--------

a---------------------------------------------------------------------------------------------------------------------------------
e----7-7-7-7--------9-9-9-9--------10-10-10-10---------9-9-9-9-------7-7-7-7-------9-9-9-9--------5-5-5-5------7--



a---------------------------------------------------------------------------------------------------------------------------------
e----7-7-7-7--------9-9-9-9--------10-10-10-10---------9-9-9-9-------7-7-7-7-------9-9-9-9--------5-5-5-5------7--

bende böyle çalıyorum...


Bu Yoruma Cevap Ver
scre@m | 8 Ocak 2010 Cuma 17:14
Beyler bnm çıkardgm kadarıyla şöyle bnce en doğrusu
e--2-2-2--4-4-4--5-5-5--4-4-4--2-2-2--4-4-4--0-0-0-2
budur bide bakn :D


Bu Yoruma Cevap Ver
duman_ist | 9 Aralık 2009 Çarşamba 23:04
yada böle de güzel oluo 5---5---7---7---8---8---7---7---5--5---7--7---3---3-------- en üst tel :D:D yada hızlı çalarsanız her rakamı üçlyip te yapabilirsniz...


Bu Yoruma Cevap Ver
asi_rockçı_93 | 25 Ocak 2009 Pazar 13:04
7----7---9---9---10---10---9---9---7--7---9--9---5---5---7----- bnce en kolayı böle ister en üst telle(mi) yapın ister onun altındakiyle (la)yapın bnce böle çok ii xD :D:D


Bu Yoruma Cevap Ver
asi_rockçı_93 | 25 Ocak 2009 Pazar 12:46
güzel olmuş saol..ayrıca beğenmedğniz şarkının bestesini yapan kişi Türkiye'nin en kaliteli müzisyenlerinden Gökhan Kırdar..


Bu Yoruma Cevap Ver
likofor | 2 Ocak 2009 Cuma 18:41
sağolgüzel aferim :D


Bu Yoruma Cevap Ver
leke | 28 Temmuz 2008 Pazartesi 17:00
abi bunada yanlış diosanız gidin ıslık çalın :D


Bu Yoruma Cevap Ver
Z_GRUP | 15 Şubat 2008 Cuma 20:33
ya bi kere o akorlarla çalınıo en alttaki ark iyi yazmış işte onu basion işaret parmaklarınla serçe ve yüzük parmağınla birer altındaki tele basion ikişer perde kayarak ya görende inanılmız zor bi şey sanır saçmalamayın bide buna yorum mu yapıonuz komiksiniz ya


Bu Yoruma Cevap Ver
volbar | 2 Ekim 2006 Pazartesi 19:24
g-0000222233332222000022223333222200002222333322220000222233332222000222333222000222 0
d 333


Bu Yoruma Cevap Ver
üye-silinmiş | 1 Haziran 2006 Perşembe 19:22
g-0000222233332222000022223333222200002222333322220000222233332222000222333222000222 0

d 333


Bu Yoruma Cevap Ver
üye-silinmiş | 1 Haziran 2006 Perşembe 19:21
en doğrusu gençler budur
e-5-5-5-7-7-7-8-8-8-7-7-7-5-5-5-7-7-7-3-3-3-5


Bu Yoruma Cevap Ver
mahmutsami79 | 26 Mayıs 2006 Cuma 03:24
ulan su hale bak ya cendere cendere aman ne gereklii bunu kuçuk kardesim flutle bile çalıyo uğraşmayın ayıp lem


Bu Yoruma Cevap Ver
byob | 20 Mayıs 2006 Cumartesi 00:02
gereksiz iş bunlar


Bu Yoruma Cevap Ver
üye-silinmiş | 19 Mayıs 2006 Cuma 23:45
ya şimdi yeni bi şey çıkardılar arka fondan başka bi ritim gelio diğer yandanda bunu çalıolar acaba onu ikili şekilde çıkabilirmisiniz? güzel olr


Bu Yoruma Cevap Ver
@LLsT@R | 29 Aralık 2005 Perşembe 20:49
5---5---5---7---7---7---8---8---8---7---7---7---5---5---5---7---7---7---8---8---8 bu şekilde cendere


Bu Yoruma Cevap Ver
sLaYeR_88 | 29 Kasım 2005 Salı 22:27
hepinizzki doğruda bide şuna baksanız çok basit ve güzel --5--5--5--7--7--7--8--8--8 arkadaşlar 5--6--7-- diye yazmış ama 6 yok .arkadaşlar 5 7 8 :3 er kez eğer warsa bi yanlışım söyleyin


Bu Yoruma Cevap Ver
sLaYeR_88 | 29 Kasım 2005 Salı 22:25
herkese selam


Bu Yoruma Cevap Ver
56094 | 25 Kasım 2005 Cuma 16:22
olum bunun bu şrkıyla ne alakası var.... ayrıca bu işten anlayan bir kişi yok mu bunu çıkıp da söyleyebilecek. kardeşim bilmiyosan bari kendini rezil etme sen de yazık günahtır


Bu Yoruma Cevap Ver
56094 | 25 Kasım 2005 Cuma 16:21
abi bunun son ve en mükemmel halini çıkarttım en kısa sürede gitar alemine saygılarımla sunacağım.tüm gitaristlere slmmmmmmmmmmm...............


Bu Yoruma Cevap Ver
f!koS | 21 Kasım 2005 Pazartesi 14:23
şakaaa gibiiii....


Bu Yoruma Cevap Ver
MaTMeTaL | 24 Temmuz 2005 Pazar 20:08
valla bu kurtlar vadisimi galiba o ben onu hiç sevmem sadece bunu yazayım dedim cendere-cendere-cendere-...


Bu Yoruma Cevap Ver
owansis | 14 Haziran 2005 Salı 17:27
bence tamamen doğru abi eline sağlık


Bu Yoruma Cevap Ver
kimyagerengin | 12 Haziran 2005 Pazar 21:22
güzel olmuş abi tebrikler yani


Bu Yoruma Cevap Ver
SUPER_BAS | 11 Haziran 2005 Cumartesi 13:28
burak demiröz tamamen doğru,çift nota falan söz konusu değil.


Bu Yoruma Cevap Ver
hierophant | 10 Haziran 2005 Cuma 18:22
güzel olmuş ama bi kaç ses sorunu var öyle geldi bana


Bu Yoruma Cevap Ver
LoVe_S_bLuE | 7 Haziran 2005 Salı 19:09
benim gecenlerde kesfettigimde suydu :
e--5----5---5---6----6---6---7----7---7---6----6---6---5----5---5---6----6---6---4----4---4---5
bilmem ne kadr dogru


Bu Yoruma Cevap Ver
Egitim_Sart | 7 Haziran 2005 Salı 12:43
birinci part'ı pek beceremedim ama,ikinci kısım hoş olmuş...teşekkürler furkan...


Bu Yoruma Cevap Ver
crazyblue | 1 Haziran 2005 Çarşamba 19:31
valla çok güzel bir şarkı yorumlarınızı bekliyorum


Bu Yoruma Cevap Ver
otherside_rhcp8 | 1 Haziran 2005 Çarşamba 16:45


Siz de Görüş Bildirin

Yorum yazma alanı Akor Merkezi üyelerine özel bir bölümdür. (Giriş Yap / Üye Ol / Şifremi Hatırlat)


Anket
~mediş soruyor:
T&t Sisters Elektro Gitarlar İyi Mi?










Sonuçlar | Sonuçlar & Yorumlar
Yeni Anket | Anketler



AkorMerkezi.com © 2022
Gizlilik Politikası - Kullanım Koşulları - Kurallar - Son Yorumlar - Rastgele

GitarAkor.com kolonisidir. Derleme 0,05 saniye.