Akor Tab Söz Çeviri Anasayfası
Akor|Tab|Söz|Nota Arşivi
Gitar Akorları | Tab,Söz ve Nota Anasayfası | En Yeni Şarkılar | En Popüler Şarkılar | Akor Cetveli

Bilgiler
 
Seslendiren ve Şarkı: Film Müzikleri - Kurtlar Vadisi Bu Şehir Girdap Gülüm
Biçim: TAB - INTRO
Tarih: 9 Nisan 2013 Salı
Gönderen: VictorieuX
Toplam Okuyan: 15.029 kişi
Bu Ay Okuyan: 581 kişi
Bu Hafta Okuyan: 54 kişi
 
Beğendiniz mi? Kurtlar Vadisi Bu Şehir Girdap Gülüm Tab sayfasını Şimdi paylaşın:

Film Müzikleri - Kurtlar Vadisi Bu Şehir Girdap Gülüm - Tab


Puanlama:
 (17 kişi)


Metin boyutu: ( + Büyült ) ( - Küçült)   

---------------0-----------|
-0-1-1-1-0-1-3---3-1-0-----|
-----------------------2-0-|
---------------------------|
---------------------------|
---------------------------|



----------------------------|
----0-0-0---0-1-3-1-0-------|
--2-------2-----------2-0---|
--------------------------3-|
----------------------------|
----------------------------|


----------------------------|
--------------0-------------|
--0-2-2-2-0-2---2-----------|
----------------------------|
----------------------------|
----------------------------|



----------------------------|
--3-5-5-5-3-5-6-5-----------|
----------------------------|
----------------------------|
----------------------------|
----------------------------|


----------------------------|
--3-3-6-5-3-3---------------|
--------------4-5-----------|
----------------------------|
----------------------------|
----------------------------|




---------------0-----------|
-0-1-1-1-0-1-3---3-1-0-----|
-----------------------2-0-|
---------------------------|
---------------------------|
---------------------------|



----------------------------|
----0-0-0---0-1-3-1-0-------|
--2-------2-----------2-0---|
--------------------------3-|
----------------------------|
----------------------------|


----------------------------|
--------------0-------------|
--0-2-2-2-0-2---2-----------|
----------------------------|
----------------------------|
----------------------------|


Alıntı Değildir...
Emeğe Saygı...
Kurtlar Vadisi Bu Şehir Girdap Gülüm Tab, AkorMerkezi.com'da yayınlanmıştır.
http://www.akormerkezi.com


İçerik Kısa Linki:


Beğendiniz mi? Kurtlar Vadisi Bu Şehir Girdap Gülüm Tab sayfasını Şimdi paylaşın:


Kurtlar Vadisi Bu Şehir Girdap Gülüm Tab için Komoçotoko'dan Gelenler
Aramalar: kurtlae vadisi tab, kurtlar vadisi muzigi tab, kurtlar vadisi gitarla notaları, kurtlar vadisi akoru, bu sehir girdap akor, bu şehir girdap gülüm bağlama notaları, kurtlar vadisi, bu şehir girdap gülüm solo, bu şehir girdap gülü gitar akoru, kurtlarl vadisi müzikleri
Film Müzikleri - Kurtlar Vadisi Bu Şehir Girdap Gülüm için Kullanıcı Görüşleri

Kese altdan sözleini de yazsaydn


Bu Yoruma Cevap Ver
ThReality | 19 Nisan 2014 Cumartesi 22:00
28 Eylül 2013 Cumartesi tarihinde hcakkuzu yazmıştı:
D:|-9-10-10-10---9-10-12--10-9-7--5h7p5 ____ v~~

D:|-7-9-9-9---7-9-10--9-7-5---3h5p3 ____ v~~

D:|-5-7-7-7----5-7-9/10/9 ____ v~~

v~~ = vibrato
/ = slide
h= hammer on
p=pull off


böyle olacak...
örnek : https://soundcloud.com/halil-akkuzu/g-l-m


Bu Yoruma Cevap Ver
hcakkuzu | 28 Eylül 2013 Cumartesi 16:08
D:|-9-10-10-10---9-10-12--10-9-7--5h7p5 ____ v~~

D:|-7-9-9-9---7-9-10--9-7-5---3h5p3 ____ v~~

D:|-5-7-7-7----5-7-9/10/9 ____ v~~

v~~ = vibrato
/ = slide
h= hammer on
p=pull off


böyle olacak...


Bu Yoruma Cevap Ver
hcakkuzu | 28 Eylül 2013 Cumartesi 16:03
ben benzetemedım.


Bu Yoruma Cevap Ver
yakopa | 11 Nisan 2013 Perşembe 19:22


Siz de Görüş Bildirin

Yorum yazma alanı Akor Merkezi üyelerine özel bir bölümdür. (Giriş Yap / Üye Ol / Şifremi Hatırlat)


Anket
cincik52 soruyor:
Sevdiğiniz Gitar Türü?









Sonuçlar | Sonuçlar & Yorumlar
Yeni Anket | Anketler



AkorMerkezi.com © 2022
Gizlilik Politikası - Kullanım Koşulları - Kurallar - Son Yorumlar - Rastgele

GitarAkor.com kolonisidir. Derleme 0,02 saniye.