Akor Tab Söz Çeviri Anasayfası
Akor|Tab|Söz|Nota Arşivi
Gitar Akorları | Tab,Söz ve Nota Anasayfası | En Yeni Şarkılar | En Popüler Şarkılar | Akor Cetveli

Bilgiler
 
Seslendiren ve Şarkı: Film Müzikleri - The Godfather
Biçim: TAB -
Tarih: 21 Ocak 2006 Cumartesi
Gönderen: fackojam
Toplam Okuyan: 94.770 kişi
Bu Ay Okuyan: 838 kişi
Bu Hafta Okuyan: 66 kişi
 
Beğendiniz mi? The Godfather Tab sayfasını Şimdi paylaşın:

Film Müzikleri - The Godfather - Tab


Puanlama:
 (56 kişi)

The Godfather şarkısının diğer versiyonlarına bakın >>

Metin boyutu: ( + Büyült ) ( - Küçült)   







e-------------------------------------------
B---0--5--8--7--5--8--5--7--5--1--3--0------
G-------------------------------------------
D-------------------------------------------
A-------------------------------------------
E------------0-----------0-----------0------




e-------------------------------------------
B---0--5--8--7--5--8--5--7--5--3--1--0--1---
G-------------------------------------------
D-------------------------------------------
A-------------------------------------------
E------------0-----------0--------------0---




e-------------------------------------------
B------1--5--7------------------------------
G---2---------------------0--2--3--5--------
D-------------------------------------------
A-------------------------------------------
E-------------------------------------------




e-------------------------------------------
B---------3--1--0--3--1--1--0--0------------
G------2--------------------------1--2------
D---4---------------------------------------
A-------------------------------------------
E------------0-----------0-----------0------





The Godfather Tab, AkorMerkezi.com'da yayınlanmıştır.
http://www.akormerkezi.com


İçerik Kısa Linki:


Beğendiniz mi? The Godfather Tab sayfasını Şimdi paylaşın:


The Godfather Tab için Komoçotoko'dan Gelenler
Aramalar: father+in+muzigi+kimin, baba müziği tab, the gotfather nota yerleri, the godfather arpej, baba film solo akor, tek tel gitar tab, good father solo, thé godfather music, the god father muzigi indir, gadfather müzği
Film Müzikleri - The Godfather için Kullanıcı Görüşleri

21 Kasım 2013 Perşembe tarihinde akordelisi yazmıştı:
E|---0-3-2-0-3-0-2---------0-3-2-0-3-0-2-0----------------2----------------|
B|-0---------------1-3-0--0----------------1-0--------1-4------1--4--5-----|
G|----------------------------------------------2---2-------2--------------|
D|-------------------------------------------------------------------------|
A|-------------------------------------------------------------------------|
E|-------------------------------------------------------------------------|

E|--------------------------------------------------------------------------|
B|-----3--1-1-0-3-1-1-0-0-4-5---5-5-4--3--7--5--1--0--0--3--0--1------------|
G|---0-----------------------------------------------------------2--5--2--4-|
D|--------------------------------------------------------------------------|
A|--------------------------------------------------------------------------|
E|--------------------------------------------------------------------------|

biraz daha basiti :)
kusura bakmayın biraz karışmış :)


Bu Yoruma Cevap Ver
akordelisi | 21 Kasım 2013 Perşembe 19:20
E|---0-3-2-0-3-0-2---------0-3-2-0-3-0-2-0----------------2----------------|
B|-0---------------1-3-0--0----------------1-0--------1-4------1--4--5-----|
G|----------------------------------------------2---2-------2--------------|
D|-------------------------------------------------------------------------|
A|-------------------------------------------------------------------------|
E|-------------------------------------------------------------------------|

E|--------------------------------------------------------------------------|
B|-----3--1-1-0-3-1-1-0-0-4-5---5-5-4--3--7--5--1--0--0--3--0--1------------|
G|---0-----------------------------------------------------------2--5--2--4-|
D|--------------------------------------------------------------------------|
A|--------------------------------------------------------------------------|
E|--------------------------------------------------------------------------|

biraz daha basiti :)


Bu Yoruma Cevap Ver
akordelisi | 21 Kasım 2013 Perşembe 19:18
arkadaşlar 0--5--8--7--5--8--5--7--5--3--1--0--1

gibi sayıların anlamı nedir. Kısaca yazar mısnız?


Bu Yoruma Cevap Ver
Adelante | 17 Haziran 2013 Pazartesi 17:27
Bunu Ben Arpej olarak çalcam
Akorlerını ve arpejini yazarmısınız lütfen tesekkurler


Bu Yoruma Cevap Ver
GuİtArrIstzZ | 29 Mayıs 2013 Çarşamba 15:42
son iki nota 1-2 yerine 3-4 olsa sanki daha iyi olurmuş :)


Bu Yoruma Cevap Ver
Zarathoss | 10 Kasım 2012 Cumartesi 08:08
Sonlara doğru sapıtmış mı sanki? :P
Olsun emeğe saygı :D


Bu Yoruma Cevap Ver
çArşılı çocuk | 15 Mayıs 2012 Salı 19:56
süpre la :D


Bu Yoruma Cevap Ver
quiTaRHeRo | 22 Mayıs 2011 Pazar 17:27
Ellerinize Sağlık :)


Bu Yoruma Cevap Ver
GitarcıMen | 3 Mayıs 2011 Salı 10:55
emeğe sağlık ama yapanda 4. de ne yapmış be düzelten varsa eklesin


Bu Yoruma Cevap Ver
teksas rodi | 4 Haziran 2010 Cuma 12:07
Bana göre çok uyumlu yazmış herkez kndini bişe zannetmesin zaten olamaz bu sözler bence çok güzel :D:D:D:D:D:D:D <3


Bu Yoruma Cevap Ver
SPLEAK | 4 Mart 2010 Perşembe 19:54
3ü iyi gitmş 4 de bozmşsun birader eme kulağına sağlık(sen yaptysan :)


Bu Yoruma Cevap Ver
tiredpessimist | 16 Mart 2009 Pazartesi 22:24
Kardesim iyisin g&uuml;zelsin ama sonlar harbiden bozmuş yine de saol ilk 2 g&uuml;zel emeğe saygı... SAOL:)


Bu Yoruma Cevap Ver
thebigman | 20 Eylül 2008 Cumartesi 22:53
g&uuml;zel kardeş eline kulağına sağlık<br/>
<br/>


Bu Yoruma Cevap Ver
dj eroll | 6 Eylül 2008 Cumartesi 16:52
sonları bozulmus


Bu Yoruma Cevap Ver
BrknS | 24 Ağustos 2008 Pazar 18:48
<p>1. 2. doğru .. 3.4 yanlşlk war birs..</p>


Bu Yoruma Cevap Ver
hopehero | 12 Ağustos 2008 Salı 21:19
m&uuml;kemmmel kiss me


Bu Yoruma Cevap Ver
leke | 27 Temmuz 2008 Pazar 19:35
eline salık sonalrıdı biz hallederis artık"/fck/editor/images/smiley/msn/wink_smile.gif" alt=""/><br/>


Bu Yoruma Cevap Ver
metaboyvlkn | 22 Temmuz 2008 Salı 18:59
sonLarı pek benzememiş..


Bu Yoruma Cevap Ver
WebBug | 19 Şubat 2008 Salı 17:48
sonlar bozulmuş bide bas telden notalar daha güzel gider


Bu Yoruma Cevap Ver
ufpin123 | 22 Aralık 2007 Cumartesi 11:20
tebrikler[[kendin çıkardıysan]] başlarda iyi gitmişsin son anlarda godfather olmakdan da cıkmış yinede emege saygı paylaşım için teşekürler


Bu Yoruma Cevap Ver
_-_yasko_-_ | 7 Aralık 2007 Cuma 18:23
:S


Bu Yoruma Cevap Ver
F1000Devil | 13 Kasım 2007 Salı 17:46
basitleşmiş hâli klasik gitar da çalanlar varsa orjinalini deneyin


Bu Yoruma Cevap Ver
Cedar | 29 Eylül 2007 Cumartesi 17:49
güzel olmuş


Bu Yoruma Cevap Ver
m.kaan k. | 18 Temmuz 2007 Çarşamba 18:57
gayet ii olmus ama bnce zorlastırmısınz. tek telden calmak yerine ilk 3 perdede calınablrdi ama gayet iyi laf yoq emeğe saygı...


Bu Yoruma Cevap Ver
dorukx | 6 Temmuz 2007 Cuma 04:41
eline sağlık canım kardeşim süper ya


Bu Yoruma Cevap Ver
tollgacan | 30 Haziran 2007 Cumartesi 20:13
son iki ölçü bozmuş kardeşim biraz daha üzerinde çalış diğer türlü çok süper


Bu Yoruma Cevap Ver
Manyax1044 | 20 Mayıs 2007 Pazar 16:53
Fena deil ya yine i sayılır


Bu Yoruma Cevap Ver
LaNeT7 | 29 Nisan 2007 Pazar 21:51
sonlara dogru godfather dan çıkıo başka biryerlere gidiyo gbi


Bu Yoruma Cevap Ver
como9107 | 10 Mart 2007 Cumartesi 03:07
evet sonlar bozmuş bayaga


Bu Yoruma Cevap Ver
Atacan Kuzey | 15 Kasım 2006 Çarşamba 20:46
arkdaşlar la minör basin (Am) re telinden si teline kadar bir vuruş yapın ve en son vuruşu yaptıktan sonra işaret parmağınızı kaldırarak birdaha wuruş yapın ve sol teline vurun kulağı olan işi çözer gerisini halleder arkdaşın yazdığına laf yok


Bu Yoruma Cevap Ver
BONTe | 25 Ekim 2006 Çarşamba 20:46
sonlara dogru hatalar warr


Bu Yoruma Cevap Ver
üye-silinmiş | 13 Ağustos 2006 Pazar 18:20
gayet hoş insanı hoşnut bırakıyo


Bu Yoruma Cevap Ver
chakan_z | 6 Ağustos 2006 Pazar 00:44
helal olsun güzel olmuş


Bu Yoruma Cevap Ver
üye-silinmiş | 24 Temmuz 2006 Pazartesi 14:45
ulan fikri bunudamı sen yazdın helal olsun müthişsin


Bu Yoruma Cevap Ver
sımarık | 27 Ocak 2006 Cuma 19:00
dostum süpersin ya teşekkürler bazı yanlışlar var ama çaldıktan sonra düzeltiriz biz.bu şarkı zaten harika bişey


Bu Yoruma Cevap Ver
badboy1990 | 27 Ocak 2006 Cuma 11:17
bazı yerlerınde yanlıslık var ama ıdare eder.


Bu Yoruma Cevap Ver
cemolakka | 25 Ocak 2006 Çarşamba 14:06


Siz de Görüş Bildirin

Yorum yazma alanı Akor Merkezi üyelerine özel bir bölümdür. (Giriş Yap / Üye Ol / Şifremi Hatırlat)


Anket
surya soruyor:
Heavy Metal nedir?











Sonuçlar | Sonuçlar & Yorumlar
Yeni Anket | Anketler



AkorMerkezi.com © 2022
Gizlilik Politikası - Kullanım Koşulları - Kurallar - Son Yorumlar - Rastgele

GitarAkor.com kolonisidir. Derleme 0,06 saniye.