Akor Tab Söz Çeviri Anasayfası
Akor|Tab|Söz|Nota Arşivi
Gitar Akorları | Tab,Söz ve Nota Anasayfası | En Yeni Şarkılar | En Popüler Şarkılar | Akor Cetveli

Bilgiler
 
Seslendiren ve Şarkı: Gece - Bana Bir Şarkı Söyle
Biçim: TAB - SOLO
Tarih: 20 Kasım 2018 Salı
Gönderen: Byspa
Toplam Okuyan: 0 kişi
Bu Ay Okuyan: 0 kişi
Bu Hafta Okuyan: 0 kişi
 
Beğendiniz mi? Bana Bir Şarkı Söyle Tab sayfasını Şimdi paylaşın:
DİKKAT!
Bana Bir Şarkı Söyle Tab sayfasını düzgün görüntüleyemiyor olabilirsiniz.
Eğer böyle bir sıkıntınız varsa tıklayın.

Gece - Bana Bir Şarkı Söyle - Tab

  (versiyon 5)
Puanlama:
 (1 kişi)

Bana Bir Şarkı Söyle şarkısının diğer versiyonlarına bakın >>

Metin boyutu: ( + Büyült ) ( - Küçült)   
(((SOLO 1 )))

E-------------------------------------------------------------------------------------------------------------
-----
B-------------------------------------------------------------7----------8-7----------------------------------
-----
G-4/6-7-7-7-7-6-4-2-4-2---------0-0-0-0---------------7-6-7-9---9-7----6-----9-7-6-7-6------------------------
-----
D-----------------------4---2-4---------4-2-0-----------------------------------------------------------------
-----
A---------------------------------------------2---------------------------------------------------------------
-----
E-------------------------------------------------------------------------------------------------------------
-----   


(((SOLO 2)))

E---------------------------------------------------------------------------------------------------0-------5/
7-----
B-----------------------------------------------------------------------------------------2----0h2h3--3-2-----
------
G----------------------------------------7-9--9(b)7----7----------------------------0h2h4-----------------4---
------
D-----------------------------9-7-9--9-7-----------------11-9-7-9-9-7--7-------0h2h4--------------------------
------
A----------------9-10---7-7-7-----------------------------------------9--9------------------------------------
------
E----5/7-7--9-10----------------------------------------------------------------------------------------------
------ 


E--12-10-------12-10-------------------12-10--------15-14-10-12-10----12-10-----------------------------------
------
B--------10-12-------10-12---12-12-12-------10-12---------------------------10-12---12-12-10-10---------------
------
G----------------------------------------------------------------------------------------------12-12-11-11-11-
------
D-------------------------------------------------------------------------------------------------------------
------
A-------------------------------------------------------------------------------------------------------------
------
E-------------------------------------------------------------------------------------------------------------
------ 

E-------------------------------------------------------------------------------------------------------------
------
B-------------------------------------------------------------------------------------------------------------
------
G--11-9-7-6--7-6-7-6------------------------------------------------------------------------------------------
------
D--------------------9-7-9------------------------------------------------------------------------------------
------
A-------------------------------------------------------------------------------------------------------------
------
E-------------------------------------------------------------------------------------------------------------
------
Bana Bir Şarkı Söyle Tab, AkorMerkezi.com'da yayınlanmıştır.
http://www.akormerkezi.com


İçerik Kısa Linki:


Beğendiniz mi? Bana Bir Şarkı Söyle Tab sayfasını Şimdi paylaşın:


Bana Bir Şarkı Söyle Tab için Komoçotoko'dan Gelenler
Gece - Bana Bir Şarkı Söyle için Kullanıcı Görüşleri

Henüz buraya yazan çizen olmamış. Yorum yapmak için buraya tıklayabilirsiniz.


Siz de Görüş Bildirin

Yorum yazma alanı Akor Merkezi üyelerine özel bir bölümdür. (Giriş Yap / Üye Ol / Şifremi Hatırlat)


Anket
junior micente soruyor:
One Direction'ın hangi şarkısı daha iyi?













Sonuçlar | Sonuçlar & Yorumlar
Yeni Anket | Anketler



AkorMerkezi.com © 2022
Gizlilik Politikası - Kullanım Koşulları - Kurallar - Son Yorumlar - Rastgele

GitarAkor.com kolonisidir. Derleme 0,02 saniye.