Akor Tab Söz Çeviri Anasayfası
Akor|Tab|Söz|Nota Arşivi
Gitar Akorları | Tab,Söz ve Nota Anasayfası | En Yeni Şarkılar | En Popüler Şarkılar | Akor Cetveli

Bilgiler
 
Seslendiren ve Şarkı: Gökhan Tepe - Bir Kaç Beden Önce
Biçim: Bass Tab, Bass Gitar Tab - FULL
Tarih: 2 Şubat 2011 Çarşamba
Gönderen: umutcann
Toplam Okuyan: 2.685 kişi
Bu Ay Okuyan: 41 kişi
Bu Hafta Okuyan: 4 kişi
 
Beğendiniz mi? Bir Kaç Beden Önce Bass Tab sayfasını Şimdi paylaşın:

Gökhan Tepe - Bir Kaç Beden Önce - Bass Tab


Puanlama:
 (10 kişi)

Bir Kaç Beden Önce şarkısının diğer versiyonlarına bakın >>

Metin boyutu: ( + Büyült ) ( - Küçült)   
Giriş=

E---------------------------------------------------------------|
B------5-4-4------4----4-5--4-5-7-4-----------------------------|
G------------6-6----6----------------7-----4-5-4----------------|
D---6-----------------------------------6-----------------------|
A---------------------------------------------------------------|
E---------------------------------------------------------------|




E---------------------------------------------------------------|
B-----4-5-4-----4----------------------4------------------------|
G--6--------6------6-4-------4-6--4-6-----6-6--4-6--4-----------|
D-----------------------6-7----------------------------7-6------|
A---------------------------------------------------------------|
E---------------------------------------------------------------|






Giriş akorları= C#m-A-G#m-C#m-A-B-A-G#m  son üç akor 1 kere çalınıyo diğerleri 2 kere               

Ritim=A-A-Y-kapa-Y-A-Y     

A=aşağı  Y=yukarı





O kadar oldumu sahi=C#m-A-B-G#m = Burası arpejle çalınıyo



kimlerden ayrıldık=A-B-A-G#m  



Hepsini kendim çıkardım umarım beğenirsiniz :)



Bir Kaç Beden Önce Bass Tab, AkorMerkezi.com'da yayınlanmıştır.
http://www.akormerkezi.com


İçerik Kısa Linki:


Beğendiniz mi? Bir Kaç Beden Önce Bass Tab sayfasını Şimdi paylaşın:


Bir Kaç Beden Önce şarkısı için amatör kayıtları dinleyin: (Siz de Ekleyin)

Bir Kaç Beden Önce Bass Tab için Komoçotoko'dan Gelenler
Aramalar: önce bir kaç, gökhan türkmen o kadar oldu mu sahi akor, birkaç beden önce akor akormer, bir kaç beden önce akor, bir kaç beden önce guitar pro tab, birkaç beden önce akor ritim, birkaç beden önceydi akor arpej, beden önce, bir kaç beden önce akor ritim, bir kaç beden önce arpej
Gökhan Tepe - Bir Kaç Beden Önce için Kullanıcı Görüşleri

sağolun


Bu Yoruma Cevap Ver
MeTaLksk | 12 Mart 2012 Pazartesi 18:40
Giriş=

E-----------------------------------4----------------------------|
B------5-4-4------4----4-5--4-5-7-5------------------------------|
G------------6-6----6-----------------7-----4-5-4----------------|
D---6------------------------------------6-----------------------|
A----------------------------------------------------------------|
E----------------------------------------------------------------|




E---------------------------------------------------------------|
B-----4-5-4-----4----------------------4------------------------|
G--6--------6------6-4-------4-6--4-6-----6-6--4-6--4-----------|
D-----------------------6-7----------------------------7-6------|
A---------------------------------------------------------------|
E---------------------------------------------------------------|



doğrusu böyledir :)


Bu Yoruma Cevap Ver
umutcann | 8 Nisan 2011 Cuma 22:38
evet bi kaçını eksik yazmışım hemen düzeltçem


Bu Yoruma Cevap Ver
umutcann | 8 Nisan 2011 Cuma 22:36
tab da sanki eksikler mi var arkadaşım.. eline sağlık yınede


Bu Yoruma Cevap Ver
canorkun | 22 Mart 2011 Salı 13:38
Şarkı nerde acaba ?


Bu Yoruma Cevap Ver
MeTa_ | 11 Şubat 2011 Cuma 10:44


Siz de Görüş Bildirin

Yorum yazma alanı Akor Merkezi üyelerine özel bir bölümdür. (Giriş Yap / Üye Ol / Şifremi Hatırlat)


Anket
ALPEREN60 soruyor:
Sizce Keman Türk Müziği Enstürmanı Mıdır?







Sonuçlar | Sonuçlar & Yorumlar
Yeni Anket | Anketler



AkorMerkezi.com © 2022
Gizlilik Politikası - Kullanım Koşulları - Kurallar - Son Yorumlar - Rastgele

GitarAkor.com kolonisidir. Derleme 0,05 saniye.