Akor Tab Söz Çeviri Anasayfası
Akor|Tab|Söz|Nota Arşivi
Gitar Akorları | Tab,Söz ve Nota Anasayfası | En Yeni Şarkılar | En Popüler Şarkılar | Akor Cetveli

Bilgiler
 
Seslendiren ve Şarkı: Gökhan Türkmen - Bitmesin
Biçim: TAB - SOLO
Tarih: 26 Eylül 2013 Perşembe
Gönderen: İlkay Köse
Toplam Okuyan: 8.633 kişi
Bu Ay Okuyan: 184 kişi
Bu Hafta Okuyan: 30 kişi
 
Beğendiniz mi? Bitmesin Tab sayfasını Şimdi paylaşın:

Gökhan Türkmen - Bitmesin - Tab


Puanlama:
 (5 kişi)

Bitmesin şarkısının diğer versiyonlarına bakın >>

Metin boyutu: ( + Büyült ) ( - Küçült)   
Ara Solo

e-------------------------------------------------------------------------
B-------------------------------------------------------------------------
G--------2-4-5s7---4-2-4-2------------2-4--2-4-2--------------------------
D--2-3-5--------------------2---2-3-5------------3--3-2---3-2--2----------
A-------------------------------------------------------5--------5-3-5-2--
E-------------------------------------------------------------------------

e-------------------------------------------------------------------------
B-------------------------------------------------------------------------
G------------------------------2---2-4-2-4-5-4-5s7------------------------
D------------2---2-3-2-3-5-3-5---5----------------------------------------
A--2-3-5-3-5---5----------------------------------------------------------
E-------------------------------------------------------------------------

e-------------------------------------------------------------------------
B-------------------------------------------------------------------------
G--4-2-4-2-----------2-4--2-4-5-4-2---------------------------------------
D----------2---2-3-5----------------5-3--3-2---3-2--2---------------------
A--------------------------------------------5--------5-3-5-2-------------
E-------------------------------------------------------------------------

e-------------------------------------------------------------------------
B-------------------------------------------------------------------------
G------------------------------2---2-4-2-4-5s7s9--------------------------
D------------2---2-3-2-3-5-3-5---5----------------------------------------
A--2-3-5-3-5---5----------------------------------------------------------
E-------------------------------------------------------------------------





Bitmesin Tab, AkorMerkezi.com'da yayınlanmıştır.
http://www.akormerkezi.com


İçerik Kısa Linki:


Beğendiniz mi? Bitmesin Tab sayfasını Şimdi paylaşın:



Bitmesin Tab için Komoçotoko'dan Gelenler
Aramalar: http://akor.ws/s-rflrtn, bitmesin gökhan türkmen akor, gokhan turkmen bıtmesin akor, gokhan turkmen akor, gökhan türkmen bitmesin chords, gokhan turkmen tablar?, gökhan türkmen bitmesin kolay akor tablature, bitmesin solo akor, gohkan bitmesin akorlari, bitmesun tab
Gökhan Türkmen - Bitmesin için Kullanıcı Görüşleri

Henüz buraya yazan çizen olmamış. Yorum yapmak için buraya tıklayabilirsiniz.


Siz de Görüş Bildirin

Yorum yazma alanı Akor Merkezi üyelerine özel bir bölümdür. (Giriş Yap / Üye Ol / Şifremi Hatırlat)




Anket
schweppes soruyor:
Black metal diyince aklınıza ne geliyor¿










Sonuçlar | Sonuçlar & Yorumlar
Yeni Anket | Anketler




Radyo Dinle
AkorMerkezi.com © 2019
Gizlilik Politikası - Kullanım Koşulları - Kurallar - Son Yorumlar - Rastgele

GitarAkor.com kolonisidir. Derleme 0,7 saniye.