Akor Tab Söz Çeviri Anasayfası
Akor|Tab|Söz|Nota Arşivi
Gitar Akorları | Tab,Söz ve Nota Anasayfası | En Yeni Şarkılar | En Popüler Şarkılar | Akor Cetveli

Bilgiler
 
Seslendiren ve Şarkı: Haluk Levent - İrem Kız
Biçim: Bass Tab, Bass Gitar Tab -
Tarih: 4 Mart 2005 Cuma
Gönderen: wolwera
Toplam Okuyan: 2.020 kişi
Bu Ay Okuyan: 27 kişi
Bu Hafta Okuyan: 3 kişi
 
Beğendiniz mi? İrem Kız Bass Tab sayfasını Şimdi paylaşın:

Haluk Levent - İrem Kız - Bass Tab


Puanlama:
 (0 kişi)

İrem Kız şarkısının diğer versiyonlarına bakın >>

Metin boyutu: ( + Büyült ) ( - Küçült)   
iNTRO
G|-----------------|-----------------|-----------------|-----------------|
D|-----------------|-----------------|-----------------|-----------------|
A|-------------3-3-|---------3-3-5-5-|-------------3-3-|---------3-3-5-5-|
E|-5-5-5-5-3-3-----|-5-5-5-5---------|-5-5-5-5-3-3-----|-5-5-5-5---------|
 \____3 defa______/ \_____1 defa____/ \_____3 defa____/

irem kizim...
G|-----------------|-------------------------|-------------------------
D|-----------------|-------------------------|-------------------------
A|-------------3-3-|-5-5-5-5-5-5-5-5-----3-3-|-------------------------
E|-5-5-5-5-3-3-----|-----------------3-3-----|-3-3-3-3-3-3-3-3-5-5-5-5-
 \_____2 defa_____/ \_________2 defa________/

-----------------------------------------------------------------------
----------------------------------------------------------2------------
-5-5-5-5-5-5-5-5-----3-3----------------------------2-3-5---5-3-5-3-2--
-----------------3-3-----3-3-3-3-3-3-3-3-5-5-5-5--5--------------------

--------------|
--------------|
3-2---2-------|
----5---5-3-5-|

ah irem kiz vah irem kiz...
G|---------------------------------|---------------------------------
D|---------------------------------|---------------------------------
A|-------------3-3-5-5-5-5-----3-3-|-5-5-5-5-7-7-8-8-----------------
E|-5-5-5-5-3-3-------------3-3-----|-----------------3-3-3-3-3-3-3-3-
 \____________2 defa______________/ 

-----------|
-----------|
---3-3-5-5-|
-5---------|
(En basa donulup tekrar calinacak.)

İrem Kız Bass Tab, AkorMerkezi.com'da yayınlanmıştır.
http://www.akormerkezi.com


İçerik Kısa Linki:


Beğendiniz mi? İrem Kız Bass Tab sayfasını Şimdi paylaşın:


İrem Kız Bass Tab için Komoçotoko'dan Gelenler
Aramalar: ah irem vah irem sarkısı, haluk levent ah irem kız, haluk levent elfida bass, hani benim olacaktın gitar akoru kadın, haluk levent tab, haluk levent bas, ah irem kiz vah irem kiz, haluk levent-irem kız tab, irem kz, irem kız
Haluk Levent - İrem Kız için Kullanıcı Görüşleri

sarkı cok güsel senada helal ossun


Bu Yoruma Cevap Ver
pUnkart® | 14 Mayıs 2006 Pazar 12:27


Siz de Görüş Bildirin

Yorum yazma alanı Akor Merkezi üyelerine özel bir bölümdür. (Giriş Yap / Üye Ol / Şifremi Hatırlat)


Anket
atelente soruyor:
Elektro Keman Size Göre ?











Sonuçlar | Sonuçlar & Yorumlar
Yeni Anket | Anketler



AkorMerkezi.com © 2022
Gizlilik Politikası - Kullanım Koşulları - Kurallar - Son Yorumlar - Rastgele

GitarAkor.com kolonisidir. Derleme 0,02 saniye.