Akor Tab Söz Çeviri Anasayfası
Akor|Tab|Söz|Nota Arşivi
Gitar Akorları | Tab,Söz ve Nota Anasayfası | En Yeni Şarkılar | En Popüler Şarkılar | Akor Cetveli

Bilgiler
 
Seslendiren ve Şarkı: Harry Potter - Hedwig's Theme Bass Tab
Biçim: Bass Tab, Bass Gitar Tab - INTRO
Tarih: 11 Şubat 2013 Pazartesi
Gönderen: Percevali
Toplam Okuyan: 2.080 kişi
Bu Ay Okuyan: 47 kişi
Bu Hafta Okuyan: 12 kişi
 
Beğendiniz mi? Hedwig's Theme Bass Tab Bass Tab sayfasını Şimdi paylaşın:

Harry Potter - Hedwig's Theme Bass Tab - Bass Tab


Puanlama:
 (1 kişi)


Metin boyutu: ( + Büyült ) ( - Küçült)   
Internette bulduğum tüm hedwigs' theme bass tabları sol telinin
üzerinde gezinerek yapılmıştı.Yani aralarında çok boşluk vardı 
ve çalması zordu.Bende parçayı kolaylaştırmak üzere bazı notaları
re teline dağıttım ve yanlış olduğunu düşündüğüm yerleri düzelttim/çıkarttım.

Umarım Beğenirsiniz ^^ 

G|-0------------12-10-------------------0~-----------|
D|--10-13-12-10------12--10-13-12-9-12---------------|
A|---------------------------------------------------|
E|---------------------------------------------------|

G|-0------------12-15--14-13-10-13-12-11-------------|
D|--10-13-12-10------------------------- 13-10~------|
A|---------------------------------------------------|
E|---------------------------------------------------|

G|----12----12----13-12-11-11-12-11-10-0-------------|
D|-13----13----13------------------------13-10~------|
A|---------------------------------------------------|
E|---------------------------------------------------|

G|----12----12----15--14-13-10-13-12-11--0-----------|
D|-13----13----13--------------------------13-10~----|
A|---------------------------------------------------|
E|---------------------------------------------------|


Hedwig's Theme Bass Tab Bass Tab, AkorMerkezi.com'da yayınlanmıştır.
http://www.akormerkezi.com


İçerik Kısa Linki:


Beğendiniz mi? Hedwig's Theme Bass Tab Bass Tab sayfasını Şimdi paylaşın:


Hedwig's Theme Bass Tab Bass Tab için Komoçotoko'dan Gelenler
Aramalar: harry potter şarkısı notaları tabs, harry pother sarkisi akor tab, Hedwig’s theme, hedwig, hedwig's theme tab notalar, hedwigs theme gitar akort, hedwig theme, Hedwig's Theme nota, Harry Potter Theme - Tab, harrt potter nota
Harry Potter - Hedwig's Theme Bass Tab için Kullanıcı Görüşleri

Henüz buraya yazan çizen olmamış. Yorum yapmak için buraya tıklayabilirsiniz.


Siz de Görüş Bildirin

Yorum yazma alanı Akor Merkezi üyelerine özel bir bölümdür. (Giriş Yap / Üye Ol / Şifremi Hatırlat)


Anket
metalcideli soruyor:
Manga mı Duman mı ?







Sonuçlar | Sonuçlar & Yorumlar
Yeni Anket | Anketler



AkorMerkezi.com © 2022
Gizlilik Politikası - Kullanım Koşulları - Kurallar - Son Yorumlar - Rastgele

GitarAkor.com kolonisidir. Derleme 0,03 saniye.