Akor Tab Söz Çeviri Anasayfası
Akor|Tab|Söz|Nota Arşivi
Gitar Akorları | Tab,Söz ve Nota Anasayfası | En Yeni Şarkılar | En Popüler Şarkılar | Akor Cetveli

Bilgiler
 
Seslendiren ve Şarkı: Him - Funeral Of Hearts
Biçim: Bass Tab, Bass Gitar Tab - FULL
Tarih: 22 Ağustos 2013 Perşembe
Gönderen: brcnrdnmz
Toplam Okuyan: 451 kişi
Bu Ay Okuyan: 13 kişi
Bu Hafta Okuyan: 0 kişi
 
Beğendiniz mi? Funeral Of Hearts Bass Tab sayfasını Şimdi paylaşın:

Him - Funeral Of Hearts - Bass Tab


Puanlama:
 (0 kişi)


Metin boyutu: ( + Büyült ) ( - Küçült)   
|-----||
|-----||
|-----||
|-----||


   Pre-Verse
||------------------|-----------------|-----------------|------------------||
||o-4-4-4-4-4-4-4-4-|-----------------|-----------------|-7-7-7-7---------o||
||o-----------------|-4-4-4-4-4-4-4-4-|-5-5-5-5-5-5-5-5-|---------7-7-7-7-o||
||------------------|-----------------|-----------------|------------------||


|-----------|-------||
|-----------|-------||
|-9---------|-------||
|--------2s=|=10----||


   Verse
    $
||------------------|-----------------|
||o-----------------|-----------------|
||o-----------------|-----------------|
||--2-2-2-2-2-2-2-2-|-0-0-0-0-0-0-0-0-|


|-----------------|-----------------|------------------|
|-----------------|-----------------|------------------|
|-----------------|-2-2-2-2-2-2-2-2-|------------------|
|-5-5-5-5-5-5-5-5-|-----------------|-2-2-2-2-2-2-2-2--|


                   1.
|-----------------|-----------------|
|-----------------|-----------------|
|-----------------|-----------------|
|-0-0-0-0-0-0-0-0-|-2-2-2-2-2-2-2-2-|


                     2.
                        To Coda
|------------------||----------|---------------||
|-----------------o||----------|---------------||
|-----------------o||----------|--2-2---4-4----||
|-2-2-2-2-5-0-2-5--||-2--------|---------------||


   Chorus
                                                                           4x
||------------------|-----------------|-----------------|------------------||
||o-4-4-4-4-4-4-4-4-|-----------------|-----------------|-7-7-7-7---------o||
||o-----------------|-4-4-4-4-4-4-4-4-|-5-5-5-5-5-5-5-5-|---------7-7-7-7-o||
||------------------|-----------------|-----------------|------------------||


     D.S. al Coda       &
|-----------|-----------||-------------||
|-4---------|-----------||-------------||
|-----------|-----------||--2-2---4-4--||
|--------2s=|=10--------||-------------||


   Guitar Solo
                                                                           4x
||------------------|-----------------|-----------------|------------------||
||o-4-4-4-4-4-4-4-4-|-----------------|-----------------|-----------------o||
||o-----------------|-4-4-4-4-4-4-4-4-|-5-5-5-5-5-5-5-5-|---------7-7-7-7-o||
||------------------|-----------------|-----------------|-5-5-5-5----------||


 Bridge
|----------|----------|-------------|-----------|
|----------|----------|-------------|-----------|
|-5--------|-7--------|-8---9--11---|-9----7----|
|----------|----------|-------------|-----------|


|----------|----------|-------------|-------------|
|----------|----------|-------------|-------------|
|-5--------|-7--------|-8---9--11---|-12----11----|
|----------|----------|-------------|-------------|


|----------|-----------------|-----------------|-------------||
|----------|-----------------|-----------------|-------------||
|-5--------|-2-2-2---4-4-(4)-|-----------------|-------------||
|----------|-----------------|-2-2-2-2-2-2-2-2-|-2-2-2-2-----||


 Chorus
|---------|-----------------|-----------------|
|---------|-----------------|-----------------|
|---------|-----------------|-2-2-2-2---------|
|---------|-0-0-0-0-0-0-0-0-|---------2-2-2-2-|


                                                                           3x
||------------------|-----------------|-----------------|------------------||
||o-----------------|-----------------|-----------------|-----------------o||
||o-----------------|-6-6-6-6-6-6-6-6-|-----------------|-2-2-2-2---------o||
||--4-4-4-4-4-4-4-4-|-----------------|-0-0-0-0-0-0-0-0-|---------2-2-2-2--||


 Outro
|-----*|
|-----*|
|-----*|
|-----*|



Funeral Of Hearts Bass Tab, AkorMerkezi.com'da yayınlanmıştır.
http://www.akormerkezi.com


İçerik Kısa Linki:


Beğendiniz mi? Funeral Of Hearts Bass Tab sayfasını Şimdi paylaşın:


Funeral Of Hearts Bass Tab için Komoçotoko'dan Gelenler
Aramalar: him funeral of hearts, H.I.M. Funeral of hearts solo tab
Him - Funeral Of Hearts için Kullanıcı Görüşleri

Henüz buraya yazan çizen olmamış. Yorum yapmak için buraya tıklayabilirsiniz.


Siz de Görüş Bildirin

Yorum yazma alanı Akor Merkezi üyelerine özel bir bölümdür. (Giriş Yap / Üye Ol / Şifremi Hatırlat)


Anket
Ahmet1232 soruyor:
Elektro Gitarda Hangisi Daha İyi?







Sonuçlar | Sonuçlar & Yorumlar
Yeni Anket | Anketler



AkorMerkezi.com © 2022
Gizlilik Politikası - Kullanım Koşulları - Kurallar - Son Yorumlar - Rastgele

GitarAkor.com kolonisidir. Derleme 0,03 saniye.