Akor Tab Söz Çeviri Anasayfası
Akor|Tab|Söz|Nota Arşivi
Gitar Akorları | Tab,Söz ve Nota Anasayfası | En Yeni Şarkılar | En Popüler Şarkılar | Akor Cetveli

Bilgiler
 
Seslendiren ve Şarkı: İlyas Yalçıntaş - İncir
Biçim: TAB - HİÇBİRİ
Tarih: 18 Şubat 2014 Salı
Gönderen: dogukan52
Toplam Okuyan: 8.983 kişi
Bu Ay Okuyan: 770 kişi
Bu Hafta Okuyan: 85 kişi
 
Beğendiniz mi? İncir Tab sayfasını Şimdi paylaşın:

İlyas Yalçıntaş - İncir - Tab


Puanlama:
 (7 kişi)

İncir şarkısının diğer versiyonlarına bakın >>

Metin boyutu: ( + Büyült ) ( - Küçült)   
E-------------------------------------------------------------
B--10-10-10-9-10-12-10---9------------9--9--10--9--9----------
G----------------------------11--9----------------------------
D-------------------------------------------------------------
A-------------------------------------------------------------
E-------------------------------------------------------------

E-------------------------------------------------------------
B--10-10-10-9-10-12--10-9-------------9-9-9-------------------
G----------------------------11--9--------------11--9---------
D-------------------------------------------------------------
A-------------------------------------------------------------
E-------------------------------------------------------------

E-------------------------------------------------------------
B-------------------------------------------------------------
G--9-11-9------9-11-9-------9-11-11-9-------------------------
D----------12----------12----------------11-12----------------
A-------------------------------------------------------------
E-------------------------------------------------------------

E-----------------------------9-9-10-9------------------------
B----------------9-10-12--9-9---------12-10-9-----------9-10--
G--9-11-9----11---------------------------------11-9-11-------
D---------12--------------------------------------------------
A-------------------------------------------------------------
E-------------------------------------------------------------


İncir Tab, AkorMerkezi.com'da yayınlanmıştır.
http://www.akormerkezi.com


İçerik Kısa Linki:


Beğendiniz mi? İncir Tab sayfasını Şimdi paylaşın:



İncir Tab için Komoçotoko'dan Gelenler
Aramalar: incirler tabları, ilyas yalçıntaş incir akor tab, İlyas yalçıntaş, ilyas yalcin tas akor, incirler tab, incir tab, incir tab notaları, incir tabları, ilyas yalcintas incir akor orjinal, incir in tab versyonu
İlyas Yalçıntaş - İncir için Kullanıcı Görüşleri

arkadaşlar buradan akorlarına ve çalış şekline bakabilirsiniz.. https://www.youtube.com/watch?v=4cZsVMKxRhU



Bu Yoruma Cevap Ver
turshu3 | 10 Şubat 2015 Salı 17:11


Siz de Görüş Bildirin

Yorum yazma alanı Akor Merkezi üyelerine özel bir bölümdür. (Giriş Yap / Üye Ol / Şifremi Hatırlat)




Anket
ceza34 soruyor:
Sizce Gitar Öğrenmek İçin Video Yetirli mi Yoksa Hoca Şart mı?








Sonuçlar | Sonuçlar & Yorumlar
Yeni Anket | Anketler




Radyo Dinle
AkorMerkezi.com © 2019
Gizlilik Politikası - Kullanım Koşulları - Kurallar - Son Yorumlar - Rastgele

GitarAkor.com kolonisidir. Derleme 0,03 saniye.