Akor Tab Söz Çeviri Anasayfası
Akor|Tab|Söz|Nota Arşivi
Gitar Akorları | Tab,Söz ve Nota Anasayfası | En Yeni Şarkılar | En Popüler Şarkılar | Akor Cetveli

Bilgiler
 
Seslendiren ve Şarkı: Korn - İt's One
Biçim: Bass Tab, Bass Gitar Tab - HİÇBİRİ
Tarih: 17 Eylül 2008 Çarşamba
Gönderen: barkinno
Toplam Okuyan: 1.119 kişi
Bu Ay Okuyan: 26 kişi
Bu Hafta Okuyan: 4 kişi
 
Beğendiniz mi? İt's One Bass Tab sayfasını Şimdi paylaşın:

Korn - İt's One - Bass Tab


Puanlama:
 (0 kişi)


Metin boyutu: ( + Büyült ) ( - Küçült)   
1.IT'S ON

Intro (Slap Distortion)
F|--------------|
C|--------------|
G|--------------|
D|---9\7---5----|
A|-0-----0---00-|
                  Repeat this 3 times
F|------------------|
C|------------------|
G|------------------|
D|---9\7---5--------|
A|-0-----0---00-3\1-|

Last time
F|--------------|
C|--------------|
G|--------------|
D|---9\7---5----|
A|-0-----0---00-|

F|------------------|
C|------------------|
G|------------------|
D|---9\7---5--------|
A|-0-----0---00-2-3-|

Intro II (Slap Distortion)
F|----------------------------|
C|----------------------------|
G|----------------------------|x3
D|---9\7---5------9\7---------|
A|-0-----0---0--0-----0-0-3\1-|

F|--------------------------|
C|--------------------------|
G|--------------------------|x1
D|---9\7---5------9\7-------|
A|-0-----0---0--0-----0-2-3-|

Verse (Fat distortion with Phase effect)
F|-----------------|
C|-----------------|
G|-----------------|x7
D|---9\8\7---9\8\7-|
A|-0-------0-------|

F|---------------------|
C|---------------------|
G|---------------------|
D|---9\8\7---9\8\7-----|
A|-0-------0-------8-7-|

F|-----------------|
C|-----------------|
G|-----------------|x4
D|---9\8\7---9\8\7-|
A|-0-------0-------|

Come on!
F|-----|
C|-----|
G|-----|
D|-----|
A|-2-3-|

Pre - Chorus: Same as Intro II

Chorus (Fat Distortion)
F|----------------------------|
C|-1-0----------0-1-----------|
G|-----0~----------0~---------|x2
D|----------------------------|
A|---------2-0~----------2-0~-|

Sratching Bridge ("This time, thiiiiiiiissss tiiiiiiiiiiiime")
Here fieldy scratch the "A" string using: resonant wah, Drive distrotion, Crystal Chorus and Delay.
Believe me, I thought this was played by a guitar but watch It's On live at Sydney '99 and you'll see
that he play this.

Bridge II (Fat Distortion)
F|--------------------------|
C|--------------------------|
G|--------------------------|x7
D|---1\0---1/3----1\0---1\4-|
A|-0-----0------0-----0-----|

F|--------------|
C|--------------|
G|--------------|x1
D|---1\0---1/10-|
A|-0-----0------|

Come on!
F|-----|
C|-----|
G|-----|
D|-----|
A|-2-3-|


gönderen : barkın şimşek /// barkinno@hotmail.com
İt's One Bass Tab, AkorMerkezi.com'da yayınlanmıştır.
http://www.akormerkezi.com


İçerik Kısa Linki:


Beğendiniz mi? İt's One Bass Tab sayfasını Şimdi paylaşın:


İt's One Bass Tab için Komoçotoko'dan Gelenler
Korn - İt's One için Kullanıcı Görüşleri

Henüz buraya yazan çizen olmamış. Yorum yapmak için buraya tıklayabilirsiniz.


Siz de Görüş Bildirin

Yorum yazma alanı Akor Merkezi üyelerine özel bir bölümdür. (Giriş Yap / Üye Ol / Şifremi Hatırlat)


Anket
ugurcanalp soruyor:
En sevdiğiniz akor hangisi?










Sonuçlar | Sonuçlar & Yorumlar
Yeni Anket | Anketler




Radyo Dinle
AkorMerkezi.com © 2020
Gizlilik Politikası - Kullanım Koşulları - Kurallar - Son Yorumlar - Rastgele

GitarAkor.com kolonisidir. Derleme 0,02 saniye.