Akor Tab Söz Çeviri Anasayfası
Akor|Tab|Söz|Nota Arşivi
Gitar Akorları | Tab,Söz ve Nota Anasayfası | En Yeni Şarkılar | En Popüler Şarkılar | Akor Cetveli

Bilgiler
 
Seslendiren ve Şarkı: Kreş - Yarım Kalan Şarap
Biçim: Bass Tab, Bass Gitar Tab - HİÇBİRİ
Tarih: 27 Kasım 2011 Pazar
Gönderen: kucuktony
Toplam Okuyan: 3.646 kişi
Bu Ay Okuyan: 44 kişi
Bu Hafta Okuyan: 4 kişi
 
Beğendiniz mi? Yarım Kalan Şarap Bass Tab sayfasını Şimdi paylaşın:

Kreş - Yarım Kalan Şarap - Bass Tab


Puanlama:
 (0 kişi)

Yarım Kalan Şarap şarkısının diğer versiyonlarına bakın >>

Metin boyutu: ( + Büyült ) ( - Küçült)   
       KREŞ-YARIM KALAN ŞARAP BASS TAB
G|-2--------------------------------------------------------5--------0-----------------X2
D|----------------------4-----------------5--------------------------------------------X2
A|----------------------------------------------------------------------------------X2
E|----------------------------------------------------------------------------------X2

G|-2--------------------------------------------------------5-5-5-5--0-0-0-0-----------X2
D|----------------------4-----------------5-5-5-5-5-5-5-5------------------------------X2
A|----------------------------------------------------------------------------------X2
E|----------------------------------------------------------------------------------X2

G|-2-2-2-2-2-2-2-2------------------------------------------5-5-5-5--0-0-0-0-----------X2
D|----------------------4-4-4-4-4-4-4-4---5-5-5-5-5-5-5-5------------------------------X2
A|----------------------------------------------------------------------------------X2
E|----------------------------------------------------------------------------------X2
Yarım Kalan Şarap Bass Tab, AkorMerkezi.com'da yayınlanmıştır.
http://www.akormerkezi.com


İçerik Kısa Linki:


Beğendiniz mi? Yarım Kalan Şarap Bass Tab sayfasını Şimdi paylaşın:


Yarım Kalan Şarap Bass Tab için Komoçotoko'dan Gelenler
Aramalar: yarım kalan şarap bass tab, yarım kalan şarap, yarım kalan şarap tab, kres yarim kalan sarap bass tab, Kreş - Yarım Kalan Şarap bass tab, arim bass, kreş yarım kalan şarap, kreş bass tab, kres yarim kalan sarap tab, kreş yarım kalan şarap akor
Kreş - Yarım Kalan Şarap için Kullanıcı Görüşleri

Henüz buraya yazan çizen olmamış. Yorum yapmak için buraya tıklayabilirsiniz.


Siz de Görüş Bildirin

Yorum yazma alanı Akor Merkezi üyelerine özel bir bölümdür. (Giriş Yap / Üye Ol / Şifremi Hatırlat)


Anket
Vessum soruyor:
Death Metalde hangisi daha iyidir?








Sonuçlar | Sonuçlar & Yorumlar
Yeni Anket | Anketler



AkorMerkezi.com © 2022
Gizlilik Politikası - Kullanım Koşulları - Kurallar - Son Yorumlar - Rastgele

GitarAkor.com kolonisidir. Derleme 0,03 saniye.