Akor Tab Söz Çeviri Anasayfası
Akor|Tab|Söz|Nota Arşivi
Gitar Akorları | Tab,Söz ve Nota Anasayfası | En Yeni Şarkılar | En Popüler Şarkılar | Akor Cetveli

Bilgiler
 
Seslendiren ve Şarkı: Kurban - Annen
Biçim: Bass Tab, Bass Gitar Tab -
Tarih: 7 Şubat 2006 Salı
Gönderen: Hendrix_jr
Toplam Okuyan: 1.580 kişi
Bu Ay Okuyan: 25 kişi
Bu Hafta Okuyan: 2 kişi
 
Beğendiniz mi? Annen Bass Tab sayfasını Şimdi paylaşın:
DİKKAT!
Annen Bass Tab sayfasını düzgün görüntüleyemiyor olabilirsiniz.
Eğer böyle bir sıkıntınız varsa tıklayın.

Kurban - Annen - Bass Tab


Puanlama:
 (0 kişi)

Annen şarkısının diğer versiyonlarına bakın >>

Metin boyutu: ( + Büyült ) ( - Küçült)   
İNTRO
G-------------------------------------------
D----22-33-55-------------------------------
A-33-----------55-33-22--33-22--------22-33-
E------------33--------55-----55-33-55------ X2



G--------------------    
D--------------------     
A-333333333333-------     
E--------------------     
dikkat et oğlum aman ha yokluktan uzak durasın

G------------------------------
D---5-3-5---5-3-5--5-3-5-33-2--
A----------------------------5-
E-55------55-----55------------
parraa..

G--------------------    
D--------------------     
A-333333333333-------     
E-------------------- 
sana dokunmayan yılan bir değil bin yıl yaşasın

G------------------------------
D---5-3-5---5-3-5--5-3-5-33-2--
A----------------------------5-
E-55------55-----55------------
aman ha aman haa..

G--------------------    
D--------------------     
A-333333333333-------     
E-------------------- 
boşver aklı felsefeyi onu bunu sen haklısın

G------------------------------
D---5-3-5---5-3-5--5-3-5-33-2--
A----------------------------5-
E-55------55-----55------------
zekaa..

G--------------------
D--------------------
A-333333333333-------
E-------------------- 
vur sopayı kes kesini kes ki ayakta durasın

G------------------------------
D---5-3-5---5-3-5--5-3-5-33-2--
A----------------------------5-
E-55------55-----55------------
zorbaa..zorbaaa...



NAKARAT
G-------------------------------------------
D----22-33-55-------------------------------
A-33-----------55-33-22--33-22--------22-33-
E------------33--------55-----55-33-55------ X2
korkma yavrum böyle anneni hatırlaaa... ahaha
bakma yavrum böyle anneni hatırla



SOLO
G-------------------------------------------
D----22-33-55-------------------------------
A-33-----------55-33-22--33-22--------22-33-
E------------33--------55-----55-33-55------


G--------------------    
D--------------------     
A-333333333333-------     
E--------------------     
gerektiğinde çalasın çal ki hayatta kalasın

G------------------------------
D---5-3-5---5-3-5--5-3-5-33-2--
A----------------------------5-
E-55------55-----55------------


G--------------------    
D--------------------     
A-333333333333-3-5---     
E------------------5- 
hayatta kalmak yeter mi çal ki kocaman olasın

G------------------------------
D---5-3-5---5-3-5--5-3-5-33-2--
A----------------------------5-
E-55------55-----55------------


G--------------------    
D--------------------     
A-333333333333-------     
E-------------------- 
sözlerini unutma ki ahı kalmasın babanın

G------------------------------
D---5-3-5---5-3-5--5-3-5-33-2--
A----------------------------5-
E-55------55-----55------------


G--------------------
D--------------------
A-333333333333-3-5---
E------------------5- 
unutma bu sözlerini vasiyetidir annanınn

G------------------------------
D---5-3-5---5-3-5--5-3-5-33-2--
A----------------------------5-
E-55------55-----55------------
anneniin..anneniin...


NAKARAT
G-------------------------------------------
D----22-33-55-------------------------------
A-33-----------55-33-22--33-22--------22-33-
E------------33--------55-----55-33-55------ X2
korkma yavrum böyle anneni hatırlaaa... ahaha
bakma yavrum böyle anneni hatırla

G------------------------------
D---5-3-5---5-3-5--5-3-5---3-5-
A------------------------------
E-55------55-----55------------



biz namuslu insanlarız bu sözler hep bizden uzak   G---------------
                                                   D--5-3-5--5-3-5-                                           
        A---------------                                                   E-3------3------


G--------------------
D--------------------
A-333333333333-3-5---
E------------------5- 
önüm arkam sağım solun saytanın içi bu tuzak

G------------------------------
D---5-3-5---5-3-5--5-3-5-33-2--
A----------------------------5-
E-55------55-----55------------
vay beeea yazıık..


NAKARAT X2
G-------------------------------------------
D----22-33-55-------------------------------
A-33-----------55-33-22--33-22--------22-33-
E------------33--------55-----55-33-55------ X2
korkma yavrum böyle anneni hatırlaaa... ahaha
bakma yavrum böyle anneni hatırla

G---------------------
D---------------------
A---33-22--------22-33
E-55-----55-33-55----- X3
anneni hatırlaaa... aha aha



SOLO
G-------------------------------------------
D----22-33-55-------------------------------
A-33-----------55-33-22--33-22--------22-33-
E------------33--------55-----55-33-55------ X2

G-------------------------------
D---5-3-5---5-3-5--5-3-5--5-3---
A-----------------------------3-
E-55------55-----55-------------

Annen Bass Tab, AkorMerkezi.com'da yayınlanmıştır.
http://www.akormerkezi.com


İçerik Kısa Linki:


Beğendiniz mi? Annen Bass Tab sayfasını Şimdi paylaşın:


Annen Bass Tab için Komoçotoko'dan Gelenler
Aramalar: kurban, annen, bass gitar, kurban annen, kurban annen bass tab
Kurban - Annen için Kullanıcı Görüşleri

Henüz buraya yazan çizen olmamış. Yorum yapmak için buraya tıklayabilirsiniz.


Siz de Görüş Bildirin

Yorum yazma alanı Akor Merkezi üyelerine özel bir bölümdür. (Giriş Yap / Üye Ol / Şifremi Hatırlat)


Anket
PoDoPaRiS soruyor:
Opeth'i Nekadar Tanıyorsunuz ?









Sonuçlar | Sonuçlar & Yorumlar
Yeni Anket | Anketler



AkorMerkezi.com © 2022
Gizlilik Politikası - Kullanım Koşulları - Kurallar - Son Yorumlar - Rastgele

GitarAkor.com kolonisidir. Derleme 0,03 saniye.