Akor Tab Söz Çeviri Anasayfası
Akor|Tab|Söz|Nota Arşivi
Gitar Akorları | Tab,Söz ve Nota Anasayfası | En Yeni Şarkılar | En Popüler Şarkılar | Akor Cetveli

Bilgiler
 
Seslendiren ve Şarkı: Levent Yüksel - Bu Gece Son
Biçim: TAB - HİÇBİRİ
Tarih: 1 Ekim 2008 Çarşamba
Gönderen: battal_29
Toplam Okuyan: 11.412 kişi
Bu Ay Okuyan: 169 kişi
Bu Hafta Okuyan: 13 kişi
 
Beğendiniz mi? Bu Gece Son Tab sayfasını Şimdi paylaşın:

Levent Yüksel - Bu Gece Son - Tab


Puanlama:
 (3 kişi)

Bu Gece Son şarkısının diğer versiyonlarına bakın >>

Metin boyutu: ( + Büyült ) ( - Küçült)   
bu gece son biraz sonra  ......                                    vuracağım .. ...
e0-----------------------0-es-0--1--3--3---5-----------------------------------------
B--3--1-1-es-1--3--1--------------------------3-es--3-5-3-6--6-5-es-5-3-1-3-1--------
G-------------------------------------------------------------------------------
D-------------------------------------------------------------------------------
A-------------------------------------------------------------------------------
E-------------------------------------------------------------------------------

 yollara.....                                                     elimi tut .... .
e-------------0-es-0--1--3--3---5----------------------------------------------------
B-1--3--1----------------------------3-es--3-5-3-6--6-5-es-5-3-1-3-1-------------------
G-------------------------------------------------------------------------------
D-------------------------------------------------------------------------------
A-------------------------------------------------------------------------------
E-------------------------------------------------------------------------------

 düşman olma... 
e-----------0-es-0--1--3--3---5----------------------------------------------------
B-1--3--1--------------------------3-es--3-5-3-6--6-7-4------------------------------
G-------------------------------------------------------------------------------
D-------------------------------------------------------------------------------
A-------------------------------------------------------------------------------
E-------------------------------------------------------------------------------

mutlu ol iyi bak kendine ... 
e-------------------------------------------------------------------------------
B-5-3-1-es-1-3-5--3-1-0------0-1-0------------------------------------------------
G-----------------------------2----------2--2-2-5-4-2-0---------------------------------
D-------------------------------------------------------------------------------
A-------------------------------------------------------------------------------
E-------------------------------------------------------------------------------

uzun uzun
e-------------------------------------------------------------------------------
B-1-1-0-------------------------------------------------------------------------
G--------2--2-4-5-4-2-0---------------------------------------------------------
D---------------------------3-5-6--6-5-3--3-5-3-6--2-3-2-5--2--2-0-2-3----3-2-0------
A--------------------------------------------------------------------------------3----
E-------------------------------------------------------------------------------
Bu Gece Son Tab, AkorMerkezi.com'da yayınlanmıştır.
http://www.akormerkezi.com


İçerik Kısa Linki:


Beğendiniz mi? Bu Gece Son Tab sayfasını Şimdi paylaşın:



Bu Gece Son Tab için Komoçotoko'dan Gelenler
Aramalar: bu gece son gitar solo, bu gece son notalari melodika, bu gece son notalar levent yüksel, be gece son tab, mutlu ol iyi bak kendine melodika notaları, bu gece son solo tab, levent yüksel be gece, levent yuksel bu gece, bu gece son resimli akor, levent yüksel mutlu ol akor
Levent Yüksel - Bu Gece Son için Kullanıcı Görüşleri

Güzel Olmu KArdeşim eline sağlık


Bu Yoruma Cevap Ver
TheGuitarKing | 10 Temmuz 2011 Pazar 13:39
güzel bravoo.......


Bu Yoruma Cevap Ver
-gtrist- | 9 Ocak 2009 Cuma 15:45
gerçekten güsel olmuş eline sağlık


Bu Yoruma Cevap Ver
crazyemre18 | 16 Ekim 2008 Perşembe 19:41
emeğe saygı g&uuml;zel olmuş<br/>
<br/>


Bu Yoruma Cevap Ver
bigenerji | 5 Ekim 2008 Pazar 18:39
&nbsp;bazı yerleri biraz kaymış. :D<br/>


Bu Yoruma Cevap Ver
battal_29 | 2 Ekim 2008 Perşembe 09:48


Siz de Görüş Bildirin

Yorum yazma alanı Akor Merkezi üyelerine özel bir bölümdür. (Giriş Yap / Üye Ol / Şifremi Hatırlat)


Anket
eek.117 soruyor:
toygar işiklinin hangi şarkisi










Sonuçlar | Sonuçlar & Yorumlar
Yeni Anket | Anketler




Toplu SMS
AkorMerkezi.com © 2021
Gizlilik Politikası - Kullanım Koşulları - Kurallar - Son Yorumlar - Rastgele

GitarAkor.com kolonisidir. Derleme 0,05 saniye.