Akor Tab Söz Çeviri Anasayfası
Akor|Tab|Söz|Nota Arşivi
Gitar Akorları | Tab,Söz ve Nota Anasayfası | En Yeni Şarkılar | En Popüler Şarkılar | Akor Cetveli

Bilgiler
 
Seslendiren ve Şarkı: Manga - Beni Benimle Bırak
Biçim: Bass Tab, Bass Gitar Tab - HİÇBİRİ
Tarih: 26 Nisan 2009 Pazar
Gönderen: _bascı_
Toplam Okuyan: 20.626 kişi
Bu Ay Okuyan: 58 kişi
Bu Hafta Okuyan: 6 kişi
 
Beğendiniz mi? Beni Benimle Bırak Bass Tab sayfasını Şimdi paylaşın:

Manga - Beni Benimle Bırak - Bass Tab


Puanlama:
 (12 kişi)

Beni Benimle Bırak şarkısının diğer versiyonlarına bakın >>

Metin boyutu: ( + Büyült ) ( - Küçült)   
                                      


G--------------------
D-------------------- X4
A--------------------
E-2-2-22-2-2-2-3-0-2-

İNTRO

G-------------------
D-------------------
A------------------- X8
E-2-2-22-2-2--3-----

 1.KISIM SÖZLER

G----------------------------------
D----------------------------------
A---------------------------------- X4
E-2-2-22-0-0-00-2-2-22-2-2-2-3-0-2-

NAKARAT

G--------------------
D-------------------- X2
A--------------------
E-2-2-22-2-2-2-3-0-2-

İNTRO

G-------------------
D-------------------
A------------------- X8
E-2-2-22-2-2--3-----

 2.KISIM SÖZLER

G----------------------------------
D----------------------------------
A---------------------------------- X4
E-2-2-22-0-0-00-2-2-22-2-2-2-3-0-2-

NAKARAT

G----------------------------------------------------------------------------
D----------------------------------------------------------------------------
A----------------------------------------------------------------------------
E-7--------7-7-8--7-7--7-8-5--7-7--7-8-5--7-7--7-8-5--7-7--7-8-5--7-7--7-8-5-

NAKARATTAN SONRAKİ KISIM

G-----------------------------------------------
D-9h10-9-7--------------------------------------
A----------10-9-7----9h10-9-7-9-7---------------
E-----------------10--------------10-9-7----7-7-

BASS SOLO KISMI

G----------------------------------------------
D----------------------------------------------
A-------------------------------0-0-0-0-2-2-2-2
E-2----0----2----0----2----0-------------------

PARÇANIN YÜKSELMEYE BAŞLADIĞI KISIM

G------------------------------------------
D------------------------------------------
A------------------------0--0-0-0-2--2-2-2-  X6
E--2--2-2-2-2-0--0-0-0-0-------------------

  HERKESLERİN KOPTUĞU KISIM:)

G------------
D------------
A------------ X8
E-2-2--2-3-0-

FİNAL İNTROSU


EN AZINDAN FİKİR VEREYİM DEDİM:)


Beni Benimle Bırak Bass Tab, AkorMerkezi.com'da yayınlanmıştır.
http://www.akormerkezi.com


İçerik Kısa Linki:


Beğendiniz mi? Beni Benimle Bırak Bass Tab sayfasını Şimdi paylaşın:


Beni Benimle Bırak şarkısı için amatör kayıtları dinleyin: (Siz de Ekleyin)

Beni Benimle Bırak Bass Tab için Komoçotoko'dan Gelenler
Aramalar: beni bimle birak bass tab, beni benimle bass tab, manga bas gitar solosu, manga beni benimle birak tab, manga bas tab, manga beni benimle birak guitar tablature, manga solo gitar notaları, unfollowme, beni benimle bırak manga, manga
Manga - Beni Benimle Bırak için Kullanıcı Görüşleri

klasik gitarla çalınır mı bu şarkı


Bu Yoruma Cevap Ver
evo97 | 15 Ekim 2010 Cuma 23:17
"hepsini al da"
derken oluşan notalardan bas gitar sesleri duyuyoruz şarkıda sıkça
ama ona benzeyen bir tab göremedim paylaşımında


Bu Yoruma Cevap Ver
ebgdae39 | 2 Temmuz 2010 Cuma 22:09
yo tam notasyon tamına tam doğru notalar verilmiş... tamına tam doğru..


Bu Yoruma Cevap Ver
btungut | 6 Haziran 2010 Pazar 14:43
bunu bi bassist yazmış olamaz .


Bu Yoruma Cevap Ver
ßassist | 22 Mart 2010 Pazartesi 08:49
pek bir alakası yok ya... tuhaf geldi....


Bu Yoruma Cevap Ver
BArıSSCI | 8 Şubat 2010 Pazartesi 15:17
gitar pro için yokmu ?


Bu Yoruma Cevap Ver
btungut | 20 Aralık 2009 Pazar 12:47
bu tablar alıntı değildir. bizzat kendim tarafından çıkartılmıştır. haaa başka sitelere kopyalanıpta sizlere bu tablar ulaştıysa bilemem. o zaman şuna dikkat edin derim. bu parçanın tablarının yayınlanış tarihine...


Bu Yoruma Cevap Ver
_bascı_ | 8 Aralık 2009 Salı 02:03
alıntı olduğunuda belirtseydin keşke..


Bu Yoruma Cevap Ver
tabçı | 29 Kasım 2009 Pazar 17:48
ne olur guitar prosunu yazın


Bu Yoruma Cevap Ver
barisarock2005 | 22 Kasım 2009 Pazar 21:17
abi gayet dogru olmuş eline saglık


Bu Yoruma Cevap Ver
matraq prens | 18 Eylül 2009 Cuma 17:42
bence gayet doğru gp5'e aktarıp vuruş sürelerini doğru ayarlayınca gayet doğru çıkıyor. bence biraz deneyin uğraşın zamanlarla. çıkıyor zamanla. ;)


Bu Yoruma Cevap Ver
ozerb96 | 2 Eylül 2009 Çarşamba 19:59
hönk..?:))))


Bu Yoruma Cevap Ver
_bascı_ | 13 Mayıs 2009 Çarşamba 02:25
gayet kötü ilgisi alakası yok birazdaha üstünde çalışılmalı


Bu Yoruma Cevap Ver
belanlı | 12 Mayıs 2009 Salı 23:13


Siz de Görüş Bildirin

Yorum yazma alanı Akor Merkezi üyelerine özel bir bölümdür. (Giriş Yap / Üye Ol / Şifremi Hatırlat)


Anket
dedee soruyor:
michael jackson'ın en iyi parçası hangisi?













Sonuçlar | Sonuçlar & Yorumlar
Yeni Anket | Anketler



AkorMerkezi.com © 2022
Gizlilik Politikası - Kullanım Koşulları - Kurallar - Son Yorumlar - Rastgele

GitarAkor.com kolonisidir. Derleme 0,06 saniye.