Akor Tab Söz Çeviri Anasayfası
Akor|Tab|Söz|Nota Arşivi
Gitar Akorları | Tab,Söz ve Nota Anasayfası | En Yeni Şarkılar | En Popüler Şarkılar | Akor Cetveli

Bilgiler
 
Seslendiren ve Şarkı: Mavi Sakal - Balta
Biçim: Bass Tab, Bass Gitar Tab -
Tarih: 13 Ekim 2006 Cuma
Gönderen: ohara
Toplam Okuyan: 2.219 kişi
Bu Ay Okuyan: 28 kişi
Bu Hafta Okuyan: 5 kişi
 
Beğendiniz mi? Balta Bass Tab sayfasını Şimdi paylaşın:

Mavi Sakal - Balta - Bass Tab


Puanlama:
 (0 kişi)

Balta şarkısının diğer versiyonlarına bakın >>

Metin boyutu: ( + Büyült ) ( - Küçült)   
Tab: Hakan Kurtuluş (berkaialll)

g--------------------------------------------4------------4------------------------
d-5-4-3-2-2-2---2---2---2---2---2---2----5-7---5--2---5-7---5--2-----0---2---------
a----------------------------------------------------------------------2-----------
e----------------------------------------------------------------------------------

böyle soruları soran demeden önce aşağıdaki gibi

-----4------------4---5-------------------------------4-7--------------------4------
-5-7---5-2----5-7---5-----5----------2-2--2-2-----2-5---5-2-0-----2-2----5-7--5-2---
-------------------------------2-2-2-----------------------------------2------------
------------------------------------------------------------------------------------

kısaltarak yazdım neresi neresine iştirak eder biraz kulak yardımıyla bulursunuz zor değil.

Balta Bass Tab, AkorMerkezi.com'da yayınlanmıştır.
http://www.akormerkezi.com


İçerik Kısa Linki:


Beğendiniz mi? Balta Bass Tab sayfasını Şimdi paylaşın:


Balta Bass Tab için Komoçotoko'dan Gelenler
Aramalar: mavi sakal tab, Mavi sakal, gitar balta, balta bass guitar, mavimavi sakal iki yol akor, balta gitara, mavi sakal bass tab, mavi sakal ne kadar bass dinle cover, balta bass gitar, bas gitar fiyatları balta
Mavi Sakal - Balta için Kullanıcı Görüşleri

Henüz buraya yazan çizen olmamış. Yorum yapmak için buraya tıklayabilirsiniz.


Siz de Görüş Bildirin

Yorum yazma alanı Akor Merkezi üyelerine özel bir bölümdür. (Giriş Yap / Üye Ol / Şifremi Hatırlat)


Anket
ymn92 soruyor:
Sizce Fiyatına Oranla En İyi Amfi Hangisi?











Sonuçlar | Sonuçlar & Yorumlar
Yeni Anket | Anketler



AkorMerkezi.com © 2022
Gizlilik Politikası - Kullanım Koşulları - Kurallar - Son Yorumlar - Rastgele

GitarAkor.com kolonisidir. Derleme 0,03 saniye.