Akor Tab Söz Çeviri Anasayfası
Akor|Tab|Söz|Nota Arşivi
Gitar Akorları | Tab,Söz ve Nota Anasayfası | En Yeni Şarkılar | En Popüler Şarkılar | Akor Cetveli

Bilgiler
 
Seslendiren ve Şarkı: Metallica - One
Biçim: TAB - HİÇBİRİ
Tarih: 17 Temmuz 2002 Çarşamba
Gönderen: ohara
Toplam Okuyan: 96.751 kişi
Bu Ay Okuyan: 858 kişi
Bu Hafta Okuyan: 92 kişi
 
Beğendiniz mi? One Tab sayfasını Şimdi paylaşın:

Metallica - One - Tab


Puanlama:
 (35 kişi)

One şarkısının diğer versiyonlarına bakın >>

Metin boyutu: ( + Büyült ) ( - Küçült)   
"ONE"    by: Metallica

corrected by
Michael Do Dinh: part before james starts singing and the solo at the
beginning
                 don't know if it's really played that way but it sounds
pretty good

[ intro ]
[ begins with gunfires and battlefield sound for a few seconds.. ]

   Bm             Gmaj7(no3rd)   Bm             Gmaj7(no3rd)
|--------------|--------------|--------------|-------------------|
|--------------|--------------|--------------|-------------------|
|--------------|--------------|--------------|----------------0--|
|-----4-----0--|-----4-----0--|-----4-----0--|-----4-----0-------|
|--2-----2-----|--------------|--2-----2-----|-------------------|
|--------------|--3-----3-----|--------------|--3-----3----------|

                 D/A            Gmaj7(no3rd)
|--------------|--------------|--------------|-------------------|
|--------------|--------------|--------------|-------------------|
|-(0)----------|--------------|--------------|-------------------|
|-----4-----0--|-----4-----0--|-----4-----0--|-------------------|
|--2-----2-----|--0-----0-----|--------------|-----2-----2-------|
|--------------|--------------|--3-----3-----|--0-----2----------|

   Bm              Gmaj7(no3rd)  Bm
|--------------|--------------|--------------|-------------------|
|--------------|--------------|--------------|-------------------|
|*-------------|--------------|--------------|--------------0----|
|*----4-----0--|-----4-----0--|-----4-----0--|-----4-----0-------|
|--2-----2-----|--------------|--2-----2-----|-------------------|
|--------------|--3-----3-----|--------------|--3-----3----------|

                  D/A            Gmaj7(no3rd) [1. N.C           ]
|--------------|--------------|--------------|-------------------|
|--------------|--------------|--------------|-------------------|
|--------------|--------------|--------------|------------------*|
|-----4-----0--|-----4-----0--|-----4-----0--|------------------*|
|--2-----2-----|--0-----0-----|--------------|-----2-----2-------|
|--------------|--------------|--3-----3-----|--0-----2----------|

 [2. N.C                    ] Bm                     Gmaj7(no3rd)
|---------------------------|----------------------|-----------------------|
|---------------------------|----------------------|-----------------------|
|---------------------------|----------------------|-----------------------|
|---------------------------|-----4-----0--0--4----|-----4-----0--4--4--0--|
|-----2-----2-----2--2h4--2-|--2-----2-----------0-|-----------------------|
|--0-----2-----0------------|----------------------|--3-----3--------------|


   Bm                     Gamj7                   Bm
|-----------------------|-----------------------|-----------------------|
|-----------------------|-----------------------|-----------------------|
|-----------------------|-----------------------|-----------------------|
|-----4-----0--0--4-----|-----4-----0--4--4--0--|-----4-----0--0--4--0--|
|--2-----2-----------0--|-----------------------|--2-----2--------------|
|-----------------------|--3-----3--------------|-----------------------|


  D/A                     Gamj7                   (Em)
|-----------------------|-----------------------|-------------------|
|-----------------------|-----------------------|-------------------|
|--------------------0--|-(0)-------------------|-------------------|
|-----4-----0--4--4-----|-----4-----0--0--4--0--|-----2h4--2--------|
|--0-----0--------------|-----------------------|----------------4--|
|-----------------------|--3-----3--------------|--0----------2-----|

2 gtrs
-----------------------------------------------------------------------
  G5            A5        (D) Riff A              (G)
|-----------------------|-----------------------|--------------------------|
|-----------------------|-----------------------|--------0h3p0---0h3p0-----|
|-----------------------|*--------0--7----------|-------------4--------0---|
|---------0-------------|*-----7-------------5--|--5-----------------------|
|-----5------------7----|---5-------------------|--------------------------|
|--3---------3--5-------|-----------------------|--------------------------|

|-----------------------|-----------------------|--------------------------|
|-----------------------|-----------------------|--------------------------|
|-----------------------|*--------0--7-------7--|--9--7--5--4----------4---|
|-----------------------|*-----7----------------|--10-9--7--5----------5---|
|-----------------------|---5-------------------|--------------------------|
|-----------------------|-----------------------|--------------------------|
-------------------------------------------------------------------------


  (F)              [1. (Em)            ]  [2.(Em) N.C end Riff A
|-----------1--------|--------------0------|------------------|
|-----1--------1-----|-----0-----0-----0---|-----0-----0------|
|--------0--------0--|--------0-----------*|--------0---------|
|--3-----------------|--2-----------------*|--2---------------|
|--------------------|---------------------|-------------/3---|
|--------------------|---------------------|------------------|

           play only 2nd time
|-----------------*--|---------------------|------------------|
|-----------0--1--0--|--0--1--0------------|------------------|
|--2-----2--0--2--0--|--0--2--0-----------*|--2---------------|
|--3-----3-----------|--------------------*|--3--2------------|
|--------------------|---------------------|------------------|
|--------------------|---------------------|------------------|

-----------------------------------------------------------------

Then the solo:

  1       2       3  4    1       2   3       4          1        2  3
4
|-----------------------|------------------------------|--------------------|
|-----------------------|-----3p2-----3p2---------3----|-3p2----------------|
|---------2---4b6b4-----|---------4-------2------------|-----4--------------|
|-----2h4---------------|------------------------------|--------------------|
|-----------------------|------------------------------|--------------------|
|-----------------------|------------------------------|--------------------|


    1       2       3       4          1     2     3     4
|-------------------------------------|----------------------------|
|-----7\5---5\4---2h3p2--0h2p0--------|------------------------2h3-|
|---------7----------------------0h2--|-2/4--------------2/4-------|
|-------------------------------------|----------------------------|
|-------------------------------------|----------------------------|
|-------------------------------------|----------------------------|

    1   2    3        4         1     2     3     4       1     2
|---------------------------|-------------------------|-------------|
|-2-------------2---3p2-----|-------------------------|-------------|
|---------2/4-----------2---|-2/4---------------------|-------------|
|---------------------------|-------------------------|-------------|
|---------------------------|-------------------------|-------------|
|---------------------------|-------------------------|-------------|

    1     2     3         4       1           2      3     4
|-----------------}14---19----|-17-15-14-15--------------------|
|-----------------{x----------|-------------15-----------------|
|-----------------}x----------|--------------------------------|
|-----------------{x----------|--------------------------------|
|-----------------------------|--------------------------------|
|-----------------------------|--------------------------------|

    1       2     3       4          1       2          3      4
|--------------------------------|---------------------------------|
|--------------------------------|---------------------------------|
|-----7p6-7-----9p7-9-------11p9-|-11----11/12---12---11-----------|
|--------------------------------|---------------------------------|
|--------------------------------|---------------------------------|
|--------------------------------|---------------------------------|

    1         2          3           4            1          2
|---------------------------------------------|----------------12-----
|----------------------------------12---------|----12-14---15---------
|-----------11-12-14---------11-12------------|-11--------------------
|--------12---------------12---------------12-|-----------------------
|-----14---------------14---------------14----|-----------------------
|---------------------------------------------|-----------------------

    3         4           1         2      3     4
 -----------------------|------------------------------|
 ---15---14---12---14---|-14-----15-12-----------------|
 -----------------------|------------------------------|
 -----------------------|------------------------------|
 -----------------------|------------------------------|
 -----------------------|------------------------------|


[ Now play the verses with both Rhy. Fig.'s simultaneously for the
verses.  ]
[ (Rhy. Fig. 1 changes slightly, where you play the open 3rd string at
the  ]
[ end of the 1st line of tab.  Simply leave that note out.  Where it is
in  ]
[ the verses, a slide is done on the bottom 2 strings from the 3rd to
5th   ]
[ fret
{3/5}).                                                              ]

Bm                   Gmaj7(no3rd)    Bm
Gmaj7(no3rd)
  I can't remember   anything          can't tell if this is true or
dream
Bm                   D/A             Gmaj7(no 3rd)           N.C.
  deep down inside I feel to scream    this terrible silence stops me
Bm                    Gmaj7(no3rd)   Bm                Gmaj7(no3rd)
  Now that the war is through with me, I'm waking up I can not see
Bm                      D/A          Gmaj7(no 3rd)           N.C.
  that there's not much lef to to me.   Nothing is real but pain now!

[Next comes the chorus.  Just power chords. ]

 G5   A5 B5     A5 G5 F#5  B5  A5
 Hold my breath as I  wish for death
 B5 C#5 B5 A5  (5th string:)-3---4----5---
        Oh,please           God  wake me!

[ One guitar holds that last note forever.  The other plays Riff A
twice   ]
[ (1st ending, 2nd
ending).                                                ]

Bm                   Gmaj7(no3rd)    Bm                 Gmaj7(no3rd)
  Back in the womb it's much to real in pumps life that I must feel
Bm                     D/A             Gmaj7(no 3rd)           N.C.
But can't look forward to reveal         look to the time when I'll live

Bm                       Gmaj7(no3rd)   Bm
Gmaj7(no3rd)
Fed thourgh the tube that sticks in me    just like a wartime novelty
Bm                      D/A           Gmaj7(no 3rd)            N.C.
  tied to machines that make me be         cut this life off   from me

 G5   A5 B5     A5 G5 F#5  B5  A5
 Hold my breath as I  wish for death
 B5 C#5 B5 A5  (5th string:)-3---4----5---
        Oh,please           God  wake me!

[ classical solo ]
|----------------------------|----------------------|----------------------|
|-------------10p7-----7-----|-10-----10---8---7----|-7h8p7----------------|
|------------------7---------|--------------------9-|--------7-------------|
|----------------------------|----------------------|----------------------|
|-(5)------------------------|----------------------|----------------------|
|----------------------------|----------------------|----------------------|


|-/10-8-7-----7---8-|---------17p14-----14-|-17---17-15--14---15p14--------|
|---------10--------|-8~~~~~---------15----|-------------------------------|
|-------------------|----------------------|-------------------------------|
|-------------------|----------------------|-------------------------------|
|-------------------|----------------------|-------------------------------|
|-------------------|----------------------|-------------------------------|


|------------------15--17--|--19p17p15-19p17p15-19p17p15-14-15----14-------|
|-15------15--19-----------|-----------------------------------17----15----|
|--------------------------|-----------------------------------------------|
|--------------------------|-----------------------------------------------|
|--------------------------|-----------------------------------------------|
|--------------------------|-----------------------------------------------|


|------|-------------------------------|-----------------------------------|
|------|-/8---8--8\7-------------------|-/13----13---13---13---12----------|
|------|-/7---7--7----7----------------|-/12----12---12---12---12----------|
|------|-------------------------------|-----------------------------------|
|------|-------------------------------|-----------------------------------|
|------|-------------------------------|-----------------------------------|


    T          T          T          T          T          T
|---20p17p13---20p17p13---20p17p13---20p17p13---20p17p13---20p17p13--------|
|--------------------------------------------------------------------------|
|--------------------------------------------------------------------------|
|--------------------------------------------------------------------------|
|--------------------------------------------------------------------------|
|--------------------------------------------------------------------------|

[ T := tap using edge of pick ]

    T             T
|---20p12h13p12---20p12h13p12-|
|-----------------------------|
|-----------------------------|
|-----------------------------|
|-----------------------------|
|-----------------------------|

G5  A5  B5    A5 G5   F#5 B5
Now the world is gone I'm just one.
A5 B5 C#5 B5 A5 B5 C#5
Oh God help me!

G5  -A5-B5    -A5-G5-F#5 -B5 -A5-B5-C#5-B5-A5-B5-C#5
Hold my breath as I  wish for death. Oh,please God wake

G5-A5-B5-A5-G5-F#5-B5
me!

  Am           G                B               C
-------------|----------------|-------------|------------|
-------------|----------------|-------------|------------|
-------------|----------------|-4-----4-----|---5-----5--|
--2--0--2--0-|-----5--5--5--5-|-4-----4-----|---5-----5--|
--3--2--3--0-|--2--5--5--5--5-|-2-----2-----|---3-----3--|
-------------|--3--3--3--3--3-|----2-----2--|------3-----|
                                              Play 4 times

  C/E                D                  B5            C5
-------------------|----------------|---------------|---------------------|
-------------------|----------------|---------------|---------------------|
-------------------|----------------|---4-----4-----|-5--5-5--------5-----|
--5--5--5--7--5----|-4--4--4--5--4\-|---4-----4-----|-5--5-5--5-----5-----|
--7--7--7--7--7--5-|-5--5--5--5--5\-|---2-----2-----|-3--3-3--3-----3-----|
-------------------|----------------|------2-----2--|------------3-----3--|

                                                                Play
twice

---------------|-----------------|------------------------------------|
---------------|-----------------|------------------------------------|
---------------|-----------------|------------------------------------|
--5------(5)---|--------------2--|--------------2-(2)-------------2-3-|
--7------(7)---|--------------2--|--------------2-(2)-------------2-3-|
--0------(0)---|--0-0-0-0-0-0-0--|--0-0-0-0-0-0-------0-0-0-0-0-0-----|
                   Play 4 times                       Play 4 times

--------------------------------|-----------------------------------|
--------------------------------|-----------------------------------|
--------------------------------|-----------------------------------|
--------------------------------|------------------------------2-3--|
--------------2---------------2-|--------------2---------------2-3--|
--0-0-0-0-0-0-0---0-0-0-0-0-0-0-|--0-0-0-0-0-0-0---0-0-0-0-0-0------|
    Dark-ness     imprisoning me   all that I see  absolute  hor-ror
I can-not live I can-not die Trapped in my-self body my holdind cell!

------------------------------------|------------------------------------|
------------------------------------|------------------------------------|
------------------------------------|------------------------------------|
------------------------------------|------------------------------------|
--------------7-(7)-------------7-8-|-------------5-(5)-------------5/8--|
--0-0-0-0-0-0-------0-0-0-0-0-0-----|-0-0-0-0-0-0-------0-0-0-0-0-0------|


------------------------------------|------------------------------------|
------------------------------------|------------------------------------|
------------------------------------|------------------------------------|
------------------------------------|------------------------------------|
--------------7-(7)-------------7-8-|-------------5-(5)-------------5----|
--0-0-0-0-0-0-------0-0-0-0-0-0-----|-0-0-0-0-0-0-------0-0-0-0-0-0---7--|


---------------------------------|-----------------------------------|
---------------------------------|-----------------------------------|
---------------------------------|-----------------------------------|
---------------------------------|------------------------------2-3--|
--------------2---------------2--|--------------2---------------2-3--|
--0-0-0-0-0-0-0---0-0-0-0-0-0-0--|--0-0-0-0-0-0-0---0-0-0-0-0-0------|
  Land-mine    has taken my sight  taken my speech taken my  hear-ing
  Taken my   arms taken my   legs taken my soul left me with life in

Double-time
-----------------------------------------|
-----------------------------------------|
-----------------------------------------|
--------------2--------------2--------3--|
--------------2--------------2--------3--|
--0-0-0-0-0-0----0-0-0-0-0-0----0-0-0----|
hell!____________

Finally:

Riff C
  E5                                      F5
-------------------------|--------------------|
-------------------------|--------------------|
-------------------------|--------------------|
---------------2---------|--------2--------3--|
---------------2---------|--------2--------3--|
--0-0-0-0-0-0-----0-0-0--|--0-0-0----0-0-0----|

 Play Riff C 4 times


Fast solo (COOL !). Okay this looks hard but with a little practice....

  T         T        T        T        T        T        T        T
E-19p15p12--19p15p12-19p15p12-19p15p12-19p15p12-19p15p12-19p15p12-19p15p12-|
B--------------------------------------------------------------------------|
G--------------------------------------------------------------------------|
D--------------------------------------------------------------------------|
A--------------------------------------------------------------------------|
E--------------------------------------------------------------------------|

 T := Tap using edge of pick; p := pull off finger or pick

  T         T        T        T        T        T        T        T
E-20p15p12--20p15p12-20p15p12-20p15p12-20p15p12-20p15p12-20p15p12-20p15p12-|
B--------------------------------------------------------------------------|
G--------------------------------------------------------------------------|
D--------------------------------------------------------------------------|
A--------------------------------------------------------------------------|
E--------------------------------------------------------------------------|
  T         T        T        T        T        T        T        T
E--------------------------------------------------------------------------|
B-19p15p12--19p15p12-19p15p12-19p15p12-19p15p12-19p15p12-19p15p12-19p15p12-|
G--------------------------------------------------------------------------|
D--------------------------------------------------------------------------|
A--------------------------------------------------------------------------|
E--------------------------------------------------------------------------|

  T         T        T        T        T        T        T        T
E--------------------------------------------------------------------------|
B-20p15p12--20p15p12-20p15p12-20p15p12-20p15p12-20p15p12-20p15p12-20p15p12-|
G--------------------------------------------------------------------------|
D--------------------------------------------------------------------------|
A--------------------------------------------------------------------------|
E--------------------------------------------------------------------------|

  T         T        T        T        T        T        T        T
E--------------------------------------------------------------------------|
B-17p13p10--17p13p10-17p13p10-17p13p10-17p13p10-17p13p10-17p13p10-17p13p10-|
G--------------------------------------------------------------------------|
D--------------------------------------------------------------------------|
A--------------------------------------------------------------------------|
E--------------------------------------------------------------------------|

  T         T        T        T        T        T        T        T
E--------------------------------------------------------------------------|
B-18p13p10--18p13p10-18p13p10-18p13p10-18p13p10-18p13p10-18p13p10-18p13p10-|
G--------------------------------------------------------------------------|
D--------------------------------------------------------------------------|
A--------------------------------------------------------------------------|
E--------------------------------------------------------------------------|

  T        T     T     T     T     T      T     T    T    T    T    T
E---------------------------------------|----------------------------------|
B-17p12h14-17p12-17p10-17p12-17p10-17p8-|-17p10-17p8-17p7-17p8-17p7-17p5---|
G---------------------------------------|----------------------------------|
D---------------------------------------|----------------------------------|
A---------------------------------------|----------------------------------|
E---------------------------------------|----------------------------------|

E------------------------------14-14-14-|-15-15-15--17-17-17----------------
B-/12-12-12--12-12-12--12--12-----------|---------------------15-15-15------
G---------------------------------------|-----------------------------------
D---------------------------------------|-----------------------------------
A---------------------------------------|-----------------------------------
E---------------------------------------|-----------------------------------

E-17-17-17-17-|-22^24-------22^24----22^24~|~~~~~~~~\---------------15-----|
B-------------|----------------------------|--------------/17--------------|
G-------------|----------------------------|-------------------------------|
D-------------|----------------------------|-------------------------------|
A-------------|----------------------------|-------------------------------|
E-------------|----------------------------|-------------------------------|

E-17p15---------------15h17p15-------------|-15h17p15-------------15h17p15--
B--------17-15-17-19-----------17-15-17-19-|----------17-15-17-19-----------
G------------------------------------------|--------------------------------
D------------------------------------------|--------------------------------
A------------------------------------------|--------------------------------
E------------------------------------------|--------------------------------

E-----------15-|-17p15------------15-17p15---------15h17----|
B-17-17-19-----|--------15-17-19------------17--15----------|
G--------------|--------------------------------------------|
D--------------|--------------------------------------------|
A--------------|--------------------------------------------|
E--------------|--------------------------------------------|

E-19p17p15-----19p17p15-----19p17p15------19p17p15----------|
B----------15-----------15------------15------------15------|
G-----------------------------------------------------------|
D-----------------------------------------------------------|
A-----------------------------------------------------------|
E-----------------------------------------------------------|

E-19p17--------19p17--------19p17---------19p17p15----------|
B----------15-----------15------------15--------------------|
G-----------------------------------------------------------|
D-----------------------------------------------------------|
A-----------------------------------------------------------|
E-----------------------------------------------------------|

E-------15-------15-------15-------15-|-18^19-15-------15-18^19-15-------15-|
B-18^20----18^20----18^20----18^20----|----------18^20-------------18^20----|
G-------------------------------------|-------------------------------------|
D-------------------------------------|-------------------------------------|
A-------------------------------------|-------------------------------------|
E-------------------------------------|-------------------------------------|

E-19p17p15-17----17p15----15----------|-------------------------------------|
B----------------------19-------------|-19p17p15-17-----15h17p15\13--15-----|
G-------------------------------------|-------------------------------------|
D-------------------------------------|-------------------------------------|
A-------------------------------------|-------------------------------------|
E-------------------------------------|-------------------------------------|

|------------------------------------------|--------------------------------|
|-13h15p13\12--13-----12h13p12----12-------|--------------------------------|
|------------------------------14----14p12-|-14p12----12----12--14^-14^-14^-|
|------------------------------------------|-------14----14-----------------|
|------------------------------------------|--------------------------------|
|------------------------------------------|--------------------------------|

|----------------------------|---------------------|------------------------|
|----------------------------|---------------------|------------------------|
|-14^16-14^16-----v14p12-----|-12-----12-----------|------------------------|
|-------------------------14-|----14------14-13-12-|------------------------|
|----------------------------|---------------------|-14-13-12-10~~~~~-------|
|----------------------------|---------------------|------------------------|


|---------------------------|---------------------------|-------------------|
|---------15^----------15^--|---------15^----------15^--|-17^-v-^-v-^-17^v^-|
|---------15^----------15^--|---------15^----------15^--|-17^-v---v-^-17^v^-|
|-17--17--------17--17------|-17--17--------17--17------|-------------------|
|---------------------------|---------------------------|-------------------|
|---------------------------|---------------------------|-------------------|

|
|
|---------------------------|---------------------------|-------------------|
|---------------------------|---------------------------|-------------------|
|---------------------------|----------.-/--------------|-------------------|
|---------5------------5----|-----------/-.-------------|-------------------|
|---------5------------5----|---------------------------|-------------3--3--|
|--3--3---3-----3--3---3----|---------------------------|-1-1-1-1-1-1-1--1--|

  PM...|        PM..|                                     PM...........|

 different notation : ^ := bend 1 fret up; v := release 1 fret


|---------------------|------------------------|----------------------------|
|-v(17)-^-v--15----15-|--------15^---------15^-|-17-----17-----15^-------15-|
|-v(17)-^-v--15----15-|--------15^---------15^-|-17-----17-----15^----------|
|---------------17----|-17--17------17--17-----|----------------------------|
|---------------------|------------------------|----------------------------|
|---------------------|------------------------|----------------------------|

|
|
|---------------------|------------------------|---------------------------|
|---------------------|------------------------|---------------------------|
|---------------------|------------------------|----------.-/--------------|
|---------------------|-------5-----------5----|-----------/-.-------------|
|-------------3---3---|-------5-----------5----|---------------------------|
|-1-1-1-1-1-1-1---1---|-3--3--3-----3--3--3----|---------------------------|

  PM...........|       PM...|      PM...|


|-------15--------15--------15--------15-|-------15--------15--------------||
|-18^20-----18^20-----18^20-----18^20----|-18^20-----18^20-----18^20~~~~~~-||
|----------------------------------------|---------------------------------||
|----------------------------------------|---------------------------------||
|----------------------------------------|---------------------------------||
|----------------------------------------|---------------------------------||

|
|
|----------------------------------------|---------------------------------||
|----------------------------------------|---------------------------------||
|----------------------------------------|---------------.-/---------------||
|----------------------------------------|----------------/-.--------------||
|--------------------3--------3----------|---------------------------------||
|--1--1--1--1--1--1--1--------1----------|---------------------------------||

  PM..................|

|------------------------------------|------------------------------------|
|------------------------------------|------------------------------------|
|------------------------------------|------------------------------------|
|------------------------------------|------------------------------------|
|---------------------------5-5-5----|-5-5-5----4-4-4---3-3-3---2-2-2-----|
|-3-3-3--3-3-3--3--------------------|------------------------------------|



Riff C
  E5                                      F5
-------------------------|--------------------|
-------------------------|--------------------|
-------------------------|--------------------|
---------------2---------|--------2--------3--|
---------------2---------|--------2--------3--|
--0-0-0-0-0-0-----0-0-0--|--0-0-0----0-0-0----|

[ Play riff C 9 times                         ]

E------------------------------------|------------------------------------|
B------------------------------------|------------------------------------|
G------------------------------------|------------------------------------|
D------------------------------------|------------------------------------|
A---------------------------5-5-5----|-5-5-5----4-4-4---3-3-3---2-2-2-----|
E-0-0-0--0-0-0--0--------------------|------------------------------------|


[ two
guitars                                                             ]
E-----------------------5--5--5------|------------------7--7--7--5--------|
B-8--8--8--7^-----------7--7--7------|--8^--------5-----8--8--8--7--------|
G-9--9--9--7^----7-------------------|--8^--------------------------------|
D----------------9-------------------|------------9-----------------------|
A------------------------------------|------------------------------------|
E------------------------------------|------------------------------------|


E-7--5-----5-------5-----------------|------------------------------------|
B-8--7--8--7-------7--8--7--8--------|-8--7--5--7--------7--5-----5-------|
G-------9-------------9--7--9--------|-9--7--6--7--------7--6--7--6-------|
D------------------------------------|-------------------------9----------|
A------------------------------------|------------------------------------|
E------------------------------------|------------------------------------|


E-----------------------5--5--5------|------------------7--7--7--5--------|
B-8--8--8--7^-----------7--7--7------|--8^--------5-----8--8--8--7--------|
G-9--9--9--7^----7-------------------|--8^--------------------------------|
D----------------9-------------------|------------9-----------------------|
A------------------------------------|------------------------------------|
E------------------------------------|------------------------------------|


E-7--5-----5-------5-----------------|-8--7--5--7--------7--5-----5-------|
B-8--7--8--7-------7--8--7--8--------|-10-8--7--8--------8--7--8--7-------|
G-------9-------------9--7--9--------|-------------------------9----------|
D------------------------------------|------------------------------------|
A------------------------------------|------------------------------------|
E------------------------------------|------------------------------------|


E-----------------------5--5--5------|------------------7--7--7--5--------|
B-8--8--8--7^-----------7--7--7------|--8^--------5-----8--8--8--7--------|
G-9--9--9--7^----7-------------------|--8^--------------------------------|
D----------------9-------------------|------------9-----------------------|
A------------------------------------|------------------------------------|
E------------------------------------|------------------------------------|


E-7--5-----5-------5-----------------|------------------------------------|
B-8--7--8--7-------7--8--7--8--------|-8--7--5--7--------7--5-----5-------|
G-------9-------------9--7--9--------|-9--7--6--7--------7--6--7--6-------|
D------------------------------------|-------------------------9----------|
A------------------------------------|------------------------------------|
E------------------------------------|------------------------------------|


E-----------------------5--5--5------|------------------7--7--7--5--------|
B-8--8--8--7^-----------7--7--7------|--8^--------5-----8--8--8--7--------|
G-9--9--9--7^----7-------------------|--8^--------------------------------|
D----------------9-------------------|------------9-----------------------|
A------------------------------------|------------------------------------|
E------------------------------------|------------------------------------|


E-7--5-----5-------5-----------------|------------------------------------|
B-8--7--8--7-------7--8--7--8--------|-8--7--5--7--------7--5-----5-------|
G-------9-------------9--7--9--------|-9--7--6--7--------7--6--7--6-------|
D------------------------------------|-------------------------9----------|
A------------------------------------|------------------------------------|
E------------------------------------|------------------------------------|


E------------------------------------|------------------------------------|
B-5----------------------------------|------------------------------------|
G-6--7--6--7-------7--6--4--6--------|-6--4--2--4--------4--2--0--2-------|
D----9--7--9-------9--7--5--7--------|-7--5--4--5--------4--2--0--2-------|
A------------------------------------|------------------------------------|
E------------------------------------|------------------------------------|


[ two
guitars                                                             ]

Riff C
  E5                                      F5
-------------------------|--------------------|
-------------------------|--------------------|
-------------------------|--------------------|
---------------2---------|--------2--------3--|
---------------2---------|--------2--------3--|
--0-0-0-0-0-0-----0-0-0--|--0-0-0----0-0-0----|

[ Play riff C 4 times                         ]

  G5
-------------------------|--------------------|
-------------------------|--------------------|
-------------------------|--------------------|
-------------5--------5--|--------5--------5--|
-------------5--------5--|--------5--------5--|
--3-----3----3--3--3--3--|--3--3--3--3--3--3--|

  E5                                      F5
-------------------------|--------------------|
-------------------------|--------------------|
-------------------------|--------------------|
---------------2---------|--------2--------3--|
---------------2---------|--------2--------3--|
--0-0-0-0-0-0-----0-0-0--|--0-0-0----0-0-0----|

  G5
-------------------------|--------------------|
-------------------------|--------------------|
-------------------------|--------------------|
-------------5--------5--|--------5--------5--|
-------------5--------5--|--------5--------5--|
--3-----3----3--3--3--3--|--3--3--3--3--3--3--|

  E5                        F5
-------------------------|--------------------|
-------------------------|--------------------|
-------------------------|--------------------|
---------------2------2--|--------3--------3--|
---------------2------2--|--------3--------3--|
--0-0-0-0-0-0---------0--|--1--1--1--1--1--1--|
[ play this 2 bars 3 times                    ]

  E5                        G5
-------------------------|--------------------|--------------------|
-------------------------|--------------------|--------------------|
-------------------------|--------------------|--------------------|
---------------2------2--|--------5--------5--|--------5--------5--|
---------------2------2--|--------5--------5--|--------5--------5--|
--0-0-0-0-0-0---------0--|--3--3--3--3--3--3--|--3--3--3--3--3--3--|

  E5                                      F5
-------------------------|--------------------|
-------------------------|--------------------|
-------------------------|--------------------|
---------------2---------|--------2--------3--|
---------------2---------|--------2--------3--|
--0-0-0-0-0-0-----0-0-0--|--0-0-0----0-0-0----|

   E5
E------------------------------------|-----------------------------------||
B------------------------------------|-----------------------------------||
G------------------------------------|-----------------------------------||
D--2-2-2--2-2-2--2------------2-2-2--|--2-2-2--2-------------------------||
A--2-2-2--2-2-2--2------------2-2-2--|--2-2-2--2-------------------------||
E--0-0-0--0-0-0--0------------0-0-0--|--0-0-0--0-------------------------||



One Tab, AkorMerkezi.com'da yayınlanmıştır.
http://www.akormerkezi.com


İçerik Kısa Linki:


Beğendiniz mi? One Tab sayfasını Şimdi paylaşın:


One Tab için Komoçotoko'dan Gelenler
Aramalar: metalica one akord, metallica one gitar nota, one - metallica, metallica one classical guitar tab, metalıca klasık gıtar solo, metallica one ta, metallica one gitar tabi, metallica one sözleri ve tab, metallica one akor, one metallica chords
Metallica - One için Kullanıcı Görüşleri

Kirk 'in girdiği yeri bulamadım yardımcı olur musunuz


Bu Yoruma Cevap Ver
KirkHammeth | 15 Şubat 2014 Cumartesi 20:46
hazır bile olsa bize ulaştırdığın için teşekkürler


Bu Yoruma Cevap Ver
RideTheGuitar | 12 Ekim 2013 Cumartesi 15:12
millet adam yonetici dağılın


Bu Yoruma Cevap Ver
gnays26 | 25 Mayıs 2013 Cumartesi 22:41
24 Mart 2009 Salı tarihinde sunshine -:- yazmıştı:
arkadaslar bariz kopyalamış övmenin br alemi yok ama eklediğin icin saol...
aynen kopyalama ama onun buraya kopyalamaya harcadığı emeğe saygı


Bu Yoruma Cevap Ver
gnays26 | 25 Mayıs 2013 Cumartesi 22:37
sen çıkarmamışsın diyenler önemli olan bu sitede olabildiğince çok şarkının bulunabileceği bi kaynak olması bunu unutmayın


Bu Yoruma Cevap Ver
SirronKcuhc | 2 Şubat 2012 Perşembe 20:07
10 Temmuz 2011 Pazar tarihinde bahar7 yazmıştı:
ya güzel ama www.songsterr.com dan bakın herşeyi kralını bulursunuz vede tabları dinleme şansınız da olur .. bi nevi online guitar pro gibi ve tab arşivide çok geniş metallica tarzı grupların şarkıları o tip sitelerde daha doğru oluo şahsen şunu sölim akormerkezinde olan tabların çoğu tek sesli çalnıo işte şunu gibi e----1-3-4-5-6 falan ama songster dekiler daha profesyonel tablar

e--3
b--3 gibi yani akormerkezinin artık şu 1.sınıf tablarından kurtlması lazım gayet güzel bir site akorları müthiş ama tablar daha profesyonel olabilir şimdi arkadaş koymuş çok güzel bi metllica tabı herkes şok ! çoğu kişiye değişik gelio.. çünkü akormerkezindeki basit tab şekillerine alışmış bnde şahsen alıştım ama dedğim gibi bi songsterr e girinde bakın .. kendiniz ilerlemesi için .... yalnışda anlaşılmasın akor merkezini kötülemiorum aksine çok beğeniorumnbeğenmesem üye olmam zaten ama şu 1.sınıf şeyleri değiştrsn artık akormerkezi tabi yeni başlayanlar için gerekli ama profesyoneller içinde konulabilir eğer zaten bu yapılmassa akormerkezi herzaman kolay tabların sitesi imajıyla kalır... saygılar....
haklısın girdim daha iyi metallicanin ceşitli adamlarinin gitarlariyla tablari caliyorlar cok genis dogru söylüyorsun.


Bu Yoruma Cevap Ver
Kingofkings | 22 Ocak 2012 Pazar 20:43
solo yanlış


Bu Yoruma Cevap Ver
RooLLing Up | 2 Nisan 2011 Cumartesi 10:20
çok güzel kardeşim fransemanu'nun dedigi gibi ufak bi hata var ama genede çok güzel


Bu Yoruma Cevap Ver
IGitarDeLisiI | 29 Kasım 2010 Pazartesi 20:04
süper olmuş


Bu Yoruma Cevap Ver
apocalypse19 | 11 Eylül 2010 Cumartesi 15:40
sen yazmamışsndırda paylaştığın içn saol


Bu Yoruma Cevap Ver
HeLL_GuarD_ | 16 Haziran 2010 Çarşamba 14:31
ya harikaaa... mükemmel.. bu şarkıyı ilk apocalyptica dan dinlemiştim sonra metallica nın olduğunu öğrenip metallica dinlemeye başlamıştım off süper yav :))


Bu Yoruma Cevap Ver
WishToForgive | 15 Şubat 2010 Pazartesi 21:05
teşekkürler çok güzel nrden buldun bunu


Bu Yoruma Cevap Ver
Pineapple | 14 Aralık 2009 Pazartesi 21:30
eklediğin için saol kardeş yalnız çok ufak bi hata war

D/A Gmaj7(no3rd)
|--------------|--------------|--------------|-------------------|
|--------------|--------------|--------------|-------------------|
|-(0)----------|--------------|--------------|-------------------|
|-----4-----0--|-----4-----0--|-----4-----0--|-------------------|
|--2-----2-----|--0-----0-----|--------------|-----2----[2]------|
|--------------|--------------|--3-----3-----|--0-----2----------|

[] işaretli yer orjinali aşağıdaki gibi olcak


D/A Gmaj7(no3rd)
|--------------|--------------|--------------|-------------------|
|--------------|--------------|--------------|-------------------|
|-(0)----------|--------------|--------------|-------------------|
|-----4-----0--|-----4-----0--|-----4-----0--|-------------------|
|--2-----2-----|--0-----0-----|--------------|-----2----[4]------|
|--------------|--------------|--3-----3-----|--0-----2----------|


Bu Yoruma Cevap Ver
fransemanu | 12 Ekim 2009 Pazartesi 21:36
ama uzun


Bu Yoruma Cevap Ver
kosyo | 9 Temmuz 2009 Perşembe 22:26
güzel


Bu Yoruma Cevap Ver
kosyo | 9 Temmuz 2009 Perşembe 22:23
arkadaslar bariz kopyalamış övmenin br alemi yok ama eklediğin icin saol...


Bu Yoruma Cevap Ver
sunshine -:- | 24 Mart 2009 Salı 17:47
valla yapanın eline sağlık çoook güzel :)


Bu Yoruma Cevap Ver
x hunter | 21 Mart 2009 Cumartesi 21:07
kırgız destan gibi ama güzel


Bu Yoruma Cevap Ver
pangea_2591 | 6 Ocak 2009 Salı 16:09
ya abi ben tab okuyamıyorum şu 18p falan fılan var bunlar ne nası oluyo biri bana açıklar mı lütfen??


Bu Yoruma Cevap Ver
rock_on | 25 Kasım 2008 Salı 20:58
abi ben ce &ccedil;ok belli bunun kopyala yapıştır olduğu yani neden sidik yarırıyoz ki ama ii olmuş o ayrı konu saol<br/>


Bu Yoruma Cevap Ver
defuck | 16 Eylül 2008 Salı 14:27
G&uuml;zel olmuş baya teşekk&uuml;r ederz <br/>


Bu Yoruma Cevap Ver
Asskicker | 2 Eylül 2008 Salı 15:26
<p>bu ne bee&nbsp;&nbsp;&nbsp; solodan soğuttu beni bu par&ccedil;a<br/>
</p>


Bu Yoruma Cevap Ver
qurye | 29 Ağustos 2008 Cuma 13:31
tesekkur dostum saolasın


Bu Yoruma Cevap Ver
koray fender | 17 Haziran 2008 Salı 17:15
arkadaşlar bu yabancı biri tarafından yapılmış belli olmuomu belkide metallica nın keni yayımladığı bi tabtır bu alıntıdır<br/>


Bu Yoruma Cevap Ver
sonveda | 10 Haziran 2008 Salı 15:45
copy paste icin tesekkür ederis ama böle olursa milyonlarca sarkı tabı olur bu sitede dogrusuyla yalnısıyla kendi cıkardıklarımızı koyup elestirilere tabi tutsak daha güzel ve bizim icin daha yaralı olmaz mı?


Bu Yoruma Cevap Ver
gkhnr10 | 2 Ağustos 2007 Perşembe 16:43
vay be ben birsürü tab gördüm ama bu kadar ayrıntılısını hayatta görmedim helal olsun be kim yatıysa


Bu Yoruma Cevap Ver
Capt. Cornelia | 17 Temmuz 2007 Salı 12:31
manyak olmuş abi süper kim yapmışsa elleri dert görmesin


Bu Yoruma Cevap Ver
wolfraider | 22 Haziran 2007 Cuma 15:21
emeğine sağlık hocam..şarkı zaten bi başyapıt:D solosu biraz kascak ama değer..


Bu Yoruma Cevap Ver
King_Jamezz | 23 Mart 2007 Cuma 19:53
yaf legato atcan. yane parmağınla vuracan o notayı ama notayı parmakla vurduktan sonra yine ondan önceki nota çıkacak. şarkıya gelince. mükemmel :)


Bu Yoruma Cevap Ver
Yigit332 | 23 Şubat 2007 Cuma 20:27
tek kelşmeyle harika..


Bu Yoruma Cevap Ver
freedomm | 11 Ocak 2007 Perşembe 15:04
hammer on pull of ya 2h4 se 2 ye abscan 4 e parmağını dokundur ama penayla vurma gibi bişi :D anlatılmıo


Bu Yoruma Cevap Ver
DarkSouL16 | 4 Ocak 2007 Perşembe 23:51
ellerine saglık guzel olmus ayrıca arkadaslar bu 2h4 u nasıl basıcaz :D ben bu h 'Lıları okumayı bilmiorm :D


Bu Yoruma Cevap Ver
10urOnur | 4 Ocak 2007 Perşembe 23:19
emeğine sağlık yane süper


Bu Yoruma Cevap Ver
üye-silinmiş | 21 Aralık 2006 Perşembe 18:21
bazı yerleri yanlış olmuş, ama yinede hoş,,, darkness.... tan sonra soloya kadar şarkıyı harcamıssın.. ynede eline sağlık


Bu Yoruma Cevap Ver
pharmania | 1 Aralık 2006 Cuma 16:02
Güzel olmuş! Bence solo kısmı en iyi kısım helal olsun kanka!!


Bu Yoruma Cevap Ver
GEge | 22 Kasım 2006 Çarşamba 10:17
helal olsun agam super


Bu Yoruma Cevap Ver
onurtamer | 5 Kasım 2006 Pazar 10:46
beyler ben çok fazla gitar çalmıorum o yüzden bunlar için gitar pro falan olsa ii olur derim. yani bazı siteler gibi burda da gp dosyaları olsaymış... şarkıya gelince, ii olmuş, eline sağlık


Bu Yoruma Cevap Ver
qann | 22 Ağustos 2006 Salı 16:37
kanka kasmıştırr bu seni ama cıkarmıssın helal olsun ne diem..


Bu Yoruma Cevap Ver
captainnnn | 22 Ağustos 2006 Salı 16:31
kaç gün uğraştın bunu yazmak için


Bu Yoruma Cevap Ver
mulbay | 16 Ağustos 2006 Çarşamba 17:58
abı buna hıkaye yazmıssın ya ama saol uurasınca oluo


Bu Yoruma Cevap Ver
satan_666 | 6 Ağustos 2006 Pazar 18:15
denedim gördüm orjinale yakın!


Bu Yoruma Cevap Ver
üye-silinmiş | 23 Temmuz 2006 Pazar 18:13
harika.başları doğruydu, gerisine dahaca bakmadım.helal olsun


Bu Yoruma Cevap Ver
üye-silinmiş | 26 Haziran 2006 Pazartesi 14:00
abi süper de bazı yerlerde küçük NOTA kaçmaları war


Bu Yoruma Cevap Ver
üye-silinmiş | 20 Haziran 2006 Salı 14:05
abi destan yazmışsın bu ne ya ben bunu okuyana kadar yıl geçer


Bu Yoruma Cevap Ver
üye-silinmiş | 20 Haziran 2006 Salı 13:19
harika bişey bu ya..................





Bu Yoruma Cevap Ver
tolgay1903 | 18 Haziran 2006 Pazar 00:52
abi türkçe bişiler yok mu.hocam işcilik süper:):):=)


Bu Yoruma Cevap Ver
üye-silinmiş | 3 Haziran 2006 Cumartesi 22:00
Bakın bunun solosu harbiden yanlış :) Baştaki tappingler burdan daha kazık, ben de notaları vardı orjinal saçmalamış Kirk :) 19p15p12 19p12h15 fln arada karıştırmış herşeyi.Ama soloyu yukarda yazıldığı gibi çalsanızda pek bi fark etmiyo yani.Bu arada bu solo Guitar World'ün yaptığı listede 8. seçilmiş.Ordaki sololara göre en kolay sololardan biri.İki sene gitar çalan birinin rahatlıkla yapabileceği bi solo bence.


Bu Yoruma Cevap Ver
Unicorn90 | 11 Mayıs 2006 Perşembe 19:48
acayip belli copy paste olduu bütün yazılar ingilizce hiç olmazsa çevirseydin yada silseydin be abi ama yine saol zahmet edip göndermişin (soloda felç oldum :)


Bu Yoruma Cevap Ver
metallboy | 26 Şubat 2006 Pazar 01:39
unu copy paste yapmadan once bi el atsan biraz duzenlesen cok karısık


Bu Yoruma Cevap Ver
_playboy_ | 6 Şubat 2006 Pazartesi 19:06
walla şimdi girişleri falan takip ediyorum da abi bu uzuyo da uzuyo bu kadar takip eden war mı ya:)


Bu Yoruma Cevap Ver
Burock_korn | 2 Şubat 2006 Perşembe 01:20
ben bunun sonundaki soloyu calabilirsem asarim kendimi, cok zor sonu... eyw..


Bu Yoruma Cevap Ver
JesterOzzy | 29 Ocak 2006 Pazar 12:35
resmen kopyala yapıştır yapmış,biraz emek werin yaw böle çala çırpa nereye kadar ama yinede teşkür etmek lazım tabi adam o kadar kasmış kopyalıycam die:)))


Bu Yoruma Cevap Ver
rigormortis | 20 Ocak 2006 Cuma 14:40
helal be abi


Bu Yoruma Cevap Ver
rock is dead | 1 Ocak 2006 Pazar 19:19
abi TABİ BİRAKALIM SİMDİ SARKI BASLİ BASİNA MÜTHİŞŞŞ abi buraya kaar itirazi olan yok...ikincisi tab da güzel olmus ama tabi 4 4lük degil............


Bu Yoruma Cevap Ver
ermprice | 17 Aralık 2005 Cumartesi 19:17
walla gerçek metalcilere helal olsun güsel ya dünyada kaliteli insanlarda warmış!!!


Bu Yoruma Cevap Ver
Show_No_Mercy | 13 Aralık 2005 Salı 11:11
metallicanın esas tab ve akorları doğru olarak olga.net de var buda ordan kopyalanmış


Bu Yoruma Cevap Ver
CePKaN | 10 Aralık 2005 Cumartesi 16:56
helal olsun gardaş senin gibi metalci az bulunur!!!!


Bu Yoruma Cevap Ver
alekhine91 | 6 Aralık 2005 Salı 16:25
son bölümdeki soloyu kirk'ten başka çalacak bi adam varmı dır şu dünyada..
gelmiş geçmiş en iyi rock parçası.. aksini iddia eden varsa yazsın


Bu Yoruma Cevap Ver
muty | 2 Aralık 2005 Cuma 17:45
1. kopyalamıs
2. kendi bi şeylerle oynamıs
3. bokmu varda kurcaladın


Bu Yoruma Cevap Ver
hakan_31 | 22 Kasım 2005 Salı 14:51
Tam anlamıyla süper,ama ah bir de kopyala-yapıştır olmasaydı.Çok teşekkürler nerden bulunmuşsa....


Bu Yoruma Cevap Ver
cruelty6084 | 7 Kasım 2005 Pazartesi 15:29
abi sen bunu kopyalamadysan yani aşmışsın diorm başkada bişe demiorm yaaaa......:((((


Bu Yoruma Cevap Ver
ınfernal | 4 Kasım 2005 Cuma 21:07
pff bes belli çalmış adam bisde burda sidik yarıştırıoz


Bu Yoruma Cevap Ver
excalibur15 | 16 Ekim 2005 Pazar 18:31
oha oha


Bu Yoruma Cevap Ver
unac | 9 Ekim 2005 Pazar 22:24
korn.......mükemmel......ama metallica olmasaydı..koRn böle süper bi parçayı yorumlayamamış olcaktı


Bu Yoruma Cevap Ver
kerem utku | 9 Ekim 2005 Pazar 16:23
arastırıp buldugun için saol bunu cıkartamamış olmak buyuk bır eksıklık deil


Bu Yoruma Cevap Ver
gokhant07 | 23 Eylül 2005 Cuma 14:29
muhteşem.hazır alsan da almasan da çok teşekkürler


Bu Yoruma Cevap Ver
tifozi | 7 Eylül 2005 Çarşamba 16:00
ya arkadaşım sen aşmışsın helal olsun sana ve senin gibi metalcılara


Bu Yoruma Cevap Ver
metalcııı | 1 Eylül 2005 Perşembe 18:02
hocam helal olsun harika iş çıkarmışın...


Bu Yoruma Cevap Ver
dolmuscu | 19 Ağustos 2005 Cuma 17:25
Bence bu bi çalışma ürünü tamam ama gönderenin diil buna inanmam bu şarkı hazır alınmış ve baştana sona doğru


Bu Yoruma Cevap Ver
skip to my luo | 18 Ağustos 2005 Perşembe 20:19
oğuzcan eğer sen yapytıysan helal olsun derim alnından öperim.ama hazır aldıysan ancak sana teşşekür ederim yinede saol iyi olmuş..


Bu Yoruma Cevap Ver
elnino | 30 Temmuz 2005 Cumartesi 12:24
mükemmel olmuş helal olsun


Bu Yoruma Cevap Ver
Dr.kopuk | 9 Ocak 2005 Pazar 15:48


Siz de Görüş Bildirin

Yorum yazma alanı Akor Merkezi üyelerine özel bir bölümdür. (Giriş Yap / Üye Ol / Şifremi Hatırlat)


Anket
paramore_35 soruyor:
HIM'ın en iyi şarkısı nedir?













Sonuçlar | Sonuçlar & Yorumlar
Yeni Anket | Anketler



AkorMerkezi.com © 2022
Gizlilik Politikası - Kullanım Koşulları - Kurallar - Son Yorumlar - Rastgele

GitarAkor.com kolonisidir. Derleme 0,11 saniye.