Akor Tab Söz Çeviri Anasayfası
Akor|Tab|Söz|Nota Arşivi
Gitar Akorları | Tab,Söz ve Nota Anasayfası | En Yeni Şarkılar | En Popüler Şarkılar | Akor Cetveli

Bilgiler
 
Seslendiren ve Şarkı: Model - Pembe Mezarlık
Biçim: Bass Tab, Bass Gitar Tab - INTRO
Tarih: 29 Eylül 2012 Cumartesi
Gönderen: kucuktony
Toplam Okuyan: 5.338 kişi
Bu Ay Okuyan: 66 kişi
Bu Hafta Okuyan: 7 kişi
 
Beğendiniz mi? Pembe Mezarlık Bass Tab sayfasını Şimdi paylaşın:

Model - Pembe Mezarlık - Bass Tab


Puanlama:
 (5 kişi)

Pembe Mezarlık şarkısının diğer versiyonlarına bakın >>

Metin boyutu: ( + Büyült ) ( - Küçült)   
                                   İNTRO
G-------------------------------------------------------------------------------|x2
D---6---------------------------------------------------------------------------|x2
A------6----7-6-----------------------------------------------------------------|x2
E------------------7----4-------------------------------------------------------|x2


Pembe Mezarlık Bass Tab, AkorMerkezi.com'da yayınlanmıştır.
http://www.akormerkezi.com


İçerik Kısa Linki:


Beğendiniz mi? Pembe Mezarlık Bass Tab sayfasını Şimdi paylaşın:



Pembe Mezarlık Bass Tab için Komoçotoko'dan Gelenler
Aramalar: model olmaz bass tab, pembe mezarlık bas gitar, 2012 bass şarkıları pembe mezarlık, model pembe mezar gitar akor notaları, pembe mezarlık bas tabları, pembe mezarlık akor, en yeni mezarlık modelleri, model pembe mezarlik gitar tabi, pembe mezarlık bass tab, pembe mezarlık tab
Model - Pembe Mezarlık için Kullanıcı Görüşleri

La telinde bir tane 6 eksik.
G-------------------------------------------------------------------------------|x2
D---6---------------------------------------------------------------------------|x2
A------6-6---7-6---------------------------------------------------------------|x2
E------------------7----4-------------------------------------------------------|x2




Bu Yoruma Cevap Ver
arca94 | 4 Ekim 2013 Cuma 19:58


Siz de Görüş Bildirin

Yorum yazma alanı Akor Merkezi üyelerine özel bir bölümdür. (Giriş Yap / Üye Ol / Şifremi Hatırlat)


Anket
Dyktor soruyor:
Sizce Şan dersi alan herkesin sesi iyi olur mu?







Sonuçlar | Sonuçlar & Yorumlar
Yeni Anket | Anketler



AkorMerkezi.com © 2022
Gizlilik Politikası - Kullanım Koşulları - Kurallar - Son Yorumlar - Rastgele

GitarAkor.com kolonisidir. Derleme 0,03 saniye.