Akor Tab Söz Çeviri Anasayfası
Akor|Tab|Söz|Nota Arşivi
Gitar Akorları | Tab,Söz ve Nota Anasayfası | En Yeni Şarkılar | En Popüler Şarkılar | Akor Cetveli

Bilgiler
 
Seslendiren ve Şarkı: Moğollar - Devlerin Aşkı
Biçim: TAB -
Tarih: 15 Ağustos 2006 Salı
Gönderen: pimiaimi
Toplam Okuyan: 46.823 kişi
Bu Ay Okuyan: 278 kişi
Bu Hafta Okuyan: 33 kişi
 
Beğendiniz mi? Devlerin Aşkı Tab sayfasını Şimdi paylaşın:

Moğollar - Devlerin Aşkı - Tab

  (versiyon 2)
Puanlama:
 (13 kişi)

Devlerin Aşkı şarkısının diğer versiyonlarına bakın >>

Metin boyutu: ( + Büyült ) ( - Küçült)   
Notlar:
(b) bekle
(h) hammer on
(v) vibrato



E|---------------------------------------------------------------------|
B|--3/5----7/8---7---5---2h3---2---0-----------------------------------|
G|-------------------------------------0h2---0-------------------------|
D|-----------------------------------------------4--2---0-----0h2------|
A|---------------------------------------------------------------------|
E|---------------------------------------------------------------------|



E|---------------------------------------------------------------------|
B|--3/5----7/8---7---5---2h3---2---0-----------------------------------|
G|-------------------------------------0h2---0-------------------------|
D|-----------------------------------------------4--2---0-----0h2------|
A|---------------------------------------------------------------------|
E|---------------------------------------------------------------------|



E|---------------------------------------|-----------------2--0--0-(b)-|
B|---------------1---0-------1---0--(b)--|-5---3--3-(b)----------------|
G|--------0---2----------2---------------|-----------------------------|
D|--2--4---------------------------------|-----------------------------|
A|---------------------------------------|-----------------------------|
E|---------------------------------------|-----------------------------|



E|--3---2--2--(b)--5---3--3-----7---5--5----8---7--7----10--8--8-------|
B|---------------------------------------------------------------------|
G|---------------------------------------------------------------------|
D|---------------------------------------------------------------------|
A|---------------------------------------------------------------------|
E|---------------------------------------------------------------------|



E|--12--10--10------14---12---12--(b)--|-15--14--12----12/14---12---10-|
B|-------------------------------------|-------------------------------|
G|-------------------------------------|-------------------------------|
D|-------------------------------------|-------------------------------|
A|-------------------------------------|-------------------------------|
E|-------------------------------------|-------------------------------|



E|-14---12---10---10/12--|-15--14--12--15--14-----12--10---------------|
B|-----------------------|---------------------------------------------|
G|-----------------------|---------------------------------------------|
D|-----------------------|---------------------------------------------|
A|-----------------------|---------------------------------------------|
E|-----------------------|---------------------------------------------|



E|--14--12--10---14--12-------5(v)--3----5(v)---3----------------------|
B|--------------------------------------------------5---3----3h5-------|
G|---------------------------------------------------------------------|
D|---------------------------------------------------------------------|
A|---------------------------------------------------------------------|
E|---------------------------------------------------------------------|
Devlerin Aşkı Tab, AkorMerkezi.com'da yayınlanmıştır.
http://www.akormerkezi.com


İçerik Kısa Linki:


Beğendiniz mi? Devlerin Aşkı Tab sayfasını Şimdi paylaşın:


Devlerin Aşkı Tab için Komoçotoko'dan Gelenler
Aramalar: vlerin aşkı tab, devlerin adki tab, devlerin aşkı moğollar nota, devlerin aşkı gitar notaları, devlerin adki mogollar tab, devlerin aşkı nota kaval, yedi karanfil devlerin aşkı tab, devlerin aşkı müziği gitar, devlerin aşkı full tab, develrin aski moglar
Moğollar - Devlerin Aşkı için Kullanıcı Görüşleri

Genel olarak mükemmel. Bir kaç kısmını değiştim bir de şu şekilde deneyin;
E|---------------------------------------------------------------------|
B|--3/5----7/8---7---5---2h3---2---0-----------------------------------|
G|--------------------------------------------0h2---0-------------------------|
D|--------------------------------------------------------4--2---0--2------|
A|---------------------------------------------------------------------|
E|---------------------------------------------------------------------|
x2
E|-------------------------------|-----------------2--0--0-(b)-|
B|---------------1---0----------|-5---3--3-(b)----------------|
G|--------0---2-----------------|-----------------------------|
D|--2--4------------------------|-----------------------------|
A|-------------------------------|-----------------------------|
E|-------------------------------|-----------------------------|
E|--3---2--2--(b)--5---3--3-----7---5--5----8---7--7----10--8--8-------|
B|---------------------------------------------------------------------|
G|---------------------------------------------------------------------|
D|---------------------------------------------------------------------|
A|---------------------------------------------------------------------|
E|---------------------------------------------------------------------|
E|--12--10--10------14---14---12--(b)--|-15--14--12----15--14---14-12-10-14-12---|
B|-------------------------------------|-------------------------------|
G|-------------------------------------|-------------------------------|
D|-------------------------------------|-------------------------------|
A|-------------------------------------|-------------------------------|
E|-------------------------------------|-------------------------------|


Bu Yoruma Cevap Ver
myasinay | 13 Mayıs 2012 Pazar 20:08
başları güzel sonlara doğru yanlış emeğin için tşk


Bu Yoruma Cevap Ver
yorumsuz1 | 14 Temmuz 2011 Perşembe 09:14
TEŞEKKÜR EDERİM BU TABNI YAYINLADIGINIZ İÇİN BENDE BIR KAC  FARKLI TABI VARDI BU ŞARKININ AMA O DIGERLERININ HEPSI YANLISTI BUNU ÇALDIM VE GERCEKTEN BIREBNIR HEPSİ DOGRUU TAM  SARKIYI YANSITIYOR DOSTUM ELLERINE  SAGLIK  HELAL OLSUN


Bu Yoruma Cevap Ver
koray fender | 20 Haziran 2008 Cuma 01:57
ilk baş süper ondan sona bozmuşsun kusura bakma


Bu Yoruma Cevap Ver
crazy_seboist | 6 Nisan 2008 Pazar 17:48
güsel olmuşş tbr


Bu Yoruma Cevap Ver
metalik_repci | 9 Aralık 2007 Pazar 15:22
eline sağlık saol


Bu Yoruma Cevap Ver
bugra_3iverson | 13 Haziran 2007 Çarşamba 22:52
aferim gayet güzel olmuş


Bu Yoruma Cevap Ver
janin | 27 Mayıs 2007 Pazar 00:32
güzel yapmışsın başı ve ortası güzel olduğu için nptasyon dpğru oldığu için isteen istediği gibi çalsın ben mesela son distorsiyonlu soloyu si telinde atıyorum sağ ol eline kafana sağlık


Bu Yoruma Cevap Ver
love_to_believe | 15 Eylül 2006 Cuma 02:24
ellerine saglik..güzel olmus;)


Bu Yoruma Cevap Ver
brandon_boyd | 3 Eylül 2006 Pazar 11:31
arkadaşlar ben bu tab'ı aslında film müzikleri kategorisinde yollamıştım romantik ve hoş bir parça ama buraya moğollar diye geçmiş neyse önemli değil lütfen bu şarkıyı bi kere deneyin hepinize müzik dolu günler...


Bu Yoruma Cevap Ver
pimiaimi | 17 Ağustos 2006 Perşembe 01:07


Siz de Görüş Bildirin

Yorum yazma alanı Akor Merkezi üyelerine özel bir bölümdür. (Giriş Yap / Üye Ol / Şifremi Hatırlat)


Anket
naz aydın soruyor:
Hangi Müzik Aleti Çalmak İstersiniz?









Sonuçlar | Sonuçlar & Yorumlar
Yeni Anket | Anketler



AkorMerkezi.com © 2021
Gizlilik Politikası - Kullanım Koşulları - Kurallar - Son Yorumlar - Rastgele

GitarAkor.com kolonisidir. Derleme 0,05 saniye.