Akor Tab Söz Çeviri Anasayfası
Akor|Tab|Söz|Nota Arşivi
Gitar Akorları | Tab,Söz ve Nota Anasayfası | En Yeni Şarkılar | En Popüler Şarkılar | Akor Cetveli

Bilgiler
 
Seslendiren ve Şarkı: Musa Eroğlu - Mihriban
Biçim: TAB - HİÇBİRİ
Tarih: 30 Aralık 2010 Perşembe
Gönderen: zonguldakli
Toplam Okuyan: 21.019 kişi
Bu Ay Okuyan: 589 kişi
Bu Hafta Okuyan: 45 kişi
 
Beğendiniz mi? Mihriban Tab sayfasını Şimdi paylaşın:

Musa Eroğlu - Mihriban - Tab


Puanlama:
 (11 kişi)

Mihriban şarkısının diğer versiyonlarına bakın >>

Metin boyutu: ( + Büyült ) ( - Küçült)   


E--5-5--5-5--5-5--5-5
B--------------------
G--------------------


E--5-3-1--5--5-5--6-3
B--------------------
G--------------------


E--5-1--3-0-1--------
B--------------3-----
G--------------------


E--1-0---------------
B-------3-3-3--------
G--------------------


E-------------0------
B--3-3--3-3------1--- burasi süzdür ?????
G--------------------


E--0-----------------
B-----3--1-1-1-------
G--------------------


E--5-5--6-3--5-1-----
B--------------------
G--------------------


E--3-0-1-------------
B---------3----------
G--------------------


E--1-0---------------
B-------3-3-3--------
G--------------------


E--0-----------------
B-----3-1-1-1--------
G--------------------


E--0-1--3-0-0--------
B--------------------
G--------------------


E--1------0----------
B------3------1--3-1-
G--------------------

E--0-----------------
B------3--1-1-1------
G--------------------


E--------------------
B--3--1-0-0-0--------
G--------------------

E--------------------
B--1-0---------------
G--------2-2-2-------




Mihriban Tab, AkorMerkezi.com'da yayınlanmıştır.
http://www.akormerkezi.com


İçerik Kısa Linki:


Beğendiniz mi? Mihriban Tab sayfasını Şimdi paylaşın:


Mihriban Tab için Komoçotoko'dan Gelenler
Aramalar: mihriban akor orjinal, musa eroğlu mihriban gitar tab, mühriban tab, mihriba saz tab, mihriban nasıl çalınır, gitar tab mihriban notaları, mihriban oyren akor, Mihriban sarkisi sazi nasil calinir, mihriban notaları tab, mihriban guitar tab
Musa Eroğlu - Mihriban için Kullanıcı Görüşleri

kulakta sorun var heralde çok kötü olmuş beya


Bu Yoruma Cevap Ver
BERkcAN97 | 26 Ekim 2012 Cuma 22:17


Siz de Görüş Bildirin

Yorum yazma alanı Akor Merkezi üyelerine özel bir bölümdür. (Giriş Yap / Üye Ol / Şifremi Hatırlat)


Anket
guitaristykerem soruyor:
En iyi elektro akustik gitar markası hangisi?













Sonuçlar | Sonuçlar & Yorumlar
Yeni Anket | Anketler




Radyo Dinle
AkorMerkezi.com © 2020
Gizlilik Politikası - Kullanım Koşulları - Kurallar - Son Yorumlar - Rastgele

GitarAkor.com kolonisidir. Derleme 0,02 saniye.