Akor Tab Söz Çeviri Anasayfası
Akor|Tab|Söz|Nota Arşivi
Gitar Akorları | Tab,Söz ve Nota Anasayfası | En Yeni Şarkılar | En Popüler Şarkılar | Akor Cetveli

Bilgiler
 
Seslendiren ve Şarkı: Muse - Hysteria
Biçim: Bass Tab, Bass Gitar Tab - HİÇBİRİ
Tarih: 29 Eylül 2012 Cumartesi
Gönderen: oguzhanaslandag
Toplam Okuyan: 1.570 kişi
Bu Ay Okuyan: 24 kişi
Bu Hafta Okuyan: 2 kişi
 
Beğendiniz mi? Hysteria Bass Tab sayfasını Şimdi paylaşın:

Muse - Hysteria - Bass Tab


Puanlama:
 (0 kişi)

Hysteria şarkısının diğer versiyonlarına bakın >>

Metin boyutu: ( + Büyült ) ( - Küçült)   
Akord Düzeni:
G----
D----
A----
E----

Solo:
(6 Defa)
-------------------------------|------------------------------------------
-------------------------------|------------------------------------------
-0-0-10-0-10-12-0-7-0-8-8-7-5-7|------------------------------------------
-------------------------------|-0-0-10-0-10-12-0-15-0-12-0-15-15-12-15-17

-------------------------------------|-----------------------------------
-0-0-10-0-10-12-0-10-0-10-9-0-9-8-0-8|-7---------------------------------
-------------------------------------|--0-10-0-10-12-0-10-0-7-0-8-8-7-5-7
-------------------------------------|-----------------------------------

6 Defa soloyu çaldıktan sonra (Nakarat):

----5-3-5--3-5-3-5-3-5|----------------------
----------------------|-----3-3-5-3-5-3-5-3-5
-3-3-3---3--3-3---3---|----------------------
----------------------|-3-3--3---3-3-3---3---

-------------------------------------|-----------------------------------
-0-0-10-0-10-12-0-10-0-10-9-0-9-8-0-8|-7---------------------------------
-------------------------------------|--0-10-0-10-12-0-10-0-7-0-8-8-7-5-7
-------------------------------------|-----------------------------------

----5-3-5--3-5-3-5-3-5|----------------------
----------------------|-----3-3-5-3-5-3-5-3-5
-3-3-3---3--3-3---3---|----------------------
----------------------|-3-3--3---3-3-3---3---

-------------------------------|------------------------------------------
-------------------------------|------------------------------------------
-0-0-10-0-10-12-0-7-0-8-8-7-5-7|------------------------------------------
-------------------------------|-0-0-10-0-10-12-0-15-0-12-0-15-15-12-15-17

Sonra ise:
(3 Defa)
-------------------------------|------------------------------------------
-------------------------------|------------------------------------------
-0-0-10-0-10-12-0-7-0-8-8-7-5-7|------------------------------------------
-------------------------------|-0-0-10-0-10-12-0-15-0-12-0-15-15-12-15-17

-------------------------------------|-----------------------------------
-0-0-10-0-10-12-0-10-0-10-9-0-9-8-0-8|-7---------------------------------
-------------------------------------|--0-10-0-10-12-0-10-0-7-0-8-8-7-5-7
-------------------------------------|-----------------------------------

Daha Sonra ise (Nakarat):

----5-3-5--3-5-3-5-3-5|----------------------
----------------------|-----3-3-5-3-5-3-5-3-5
-3-3-3---3--3-3---3---|----------------------
----------------------|-3-3--3---3-3-3---3---

-------------------------------------|-----------------------------------
-0-0-10-0-10-12-0-10-0-10-9-0-9-8-0-8|-7---------------------------------
-------------------------------------|--0-10-0-10-12-0-10-0-7-0-8-8-7-5-7
-------------------------------------|-----------------------------------

----5-3-5--3-5-3-5-3-5|----------------------
----------------------|-----3-3-5-3-5-3-5-3-5
-3-3-3---3--3-3---3---|----------------------
----------------------|-3-3--3---3-3-3---3---

-------------------------------|------------------------------------------
-------------------------------|------------------------------------------
-0-0-10-0-10-12-0-7-0-8-8-7-5-7|------------------------------------------
-------------------------------|-0-0-10-0-10-12-0-15-0-12-0-15-15-12-15-17

Sona 4 Adım kala:

---------------------------------|------------------------------------------
---------------------------------|------------------------------------------
---------------------------------|------------------------------------------
-0-0-10-0-10-12-0-10-0-10-9-8-0-8|7-0-10-0-10-12-0-10-0-10-9-0-9-8-0-8------

-------------------------------------|--------------------------------------
-------------------------------------|--------------------------------------
-------------------------------------|--------------------------------------
-7-0-10-0-10-12-0-10-0-7-0-8-8-7-5-7-|-7-0-10-0-10-12-15-0-12-15-15-12-15-17

-------------------------------|------------------------------------------
-------------------------------|------------------------------------------
-0-0-10-0-10-12-0-7-0-8-8-7-5-7|------------------------------------------
-------------------------------|-0-0-10-0-10-12-0-15-0-12-0-15-15-12-15-17

-------------------------------------|-----------------------------------
-0-0-10-0-10-12-0-10-0-10-9-0-9-8-0-8|-7---------------------------------
-------------------------------------|--0-10-0-10-12-0-10-0-7-0-8-8-7-5-7
-------------------------------------|-----------------------------------

-------------------------------|------------------------------------------
-------------------------------|------------------------------------------
-0-0-10-0-10-12-0-7-0-8-8-7-5-7|------------------------------------------
-------------------------------|-0-0-10-0-10-12-0-15-0-12-0-15-15-12-15-17

-------------------------------------|-----------------------------------
-0-0-10-0-10-12-0-10-0-10-9-0-9-8-0-8|-7---------------------------------
-------------------------------------|--0-10-0-10-12-0-10-0-7-0-8-8-7-5-7
-------------------------------------|-----------------------------------

Sona 3 Adım Kala:
(3 Defa)
----5-3-5--3-5-3-5-3-5|----------------------
----------------------|-----3-3-5-3-5-3-5-3-5
-3-3-3---3--3-3---3---|----------------------
----------------------|-3-3--3---3-3-3---3---

-------------------------------------|-----------------------------------
-0-0-10-0-10-12-0-10-0-10-9-0-9-8-0-8|-7---------------------------------
-------------------------------------|--0-10-0-10-12-0-10-0-7-0-8-8-7-5-7
-------------------------------------|-----------------------------------

Sona 2 Adım Kala:
-------------------------------------|------------------------------------------
-0-0-10-0-10-12-0-10-0-10-9-0-9-8-0-8|------------------------------------------
-------------------------------------|------------------------------------------
-------------------------------------|-0-0-10-0-10-12-0-15-0-12-0-15-15-12-15-17

Sona 1 Adım Kala:
(3 Defa)
---------------------------------|------------------------------------------
---------------------------------|------------------------------------------
---------------------------------|------------------------------------------
-0-0-10-0-10-12-0-10-0-10-9-8-0-8|7-0-10-0-10-12-0-10-0-10-9-0-9-8-0-8------

SON!

Hysteria Bass Tab, AkorMerkezi.com'da yayınlanmıştır.
http://www.akormerkezi.com


İçerik Kısa Linki:


Beğendiniz mi? Hysteria Bass Tab sayfasını Şimdi paylaşın:


Hysteria şarkısı için amatör kayıtları dinleyin: (Siz de Ekleyin)

Hysteria Bass Tab için Komoçotoko'dan Gelenler
Aramalar: notasi bas histeria, muse hysteria bass tab, ackor bass muse hysteria, hyateria muse bass tab, hysteria bass tab, muse hysteria tab, muse, Hysterıa, akor chord bass hysteria, muse hysteria
Muse - Hysteria için Kullanıcı Görüşleri

Henüz buraya yazan çizen olmamış. Yorum yapmak için buraya tıklayabilirsiniz.


Siz de Görüş Bildirin

Yorum yazma alanı Akor Merkezi üyelerine özel bir bölümdür. (Giriş Yap / Üye Ol / Şifremi Hatırlat)


Anket
selif soruyor:
Amatör grupların müzik hayatlarında ilerleyebilmelerinde hangi özellikleri daha etkilidir?













Sonuçlar | Sonuçlar & Yorumlar
Yeni Anket | Anketler



AkorMerkezi.com © 2022
Gizlilik Politikası - Kullanım Koşulları - Kurallar - Son Yorumlar - Rastgele

GitarAkor.com kolonisidir. Derleme 0,03 saniye.