Akor Tab Söz Çeviri Anasayfası
Akor|Tab|Söz|Nota Arşivi
Gitar Akorları | Tab,Söz ve Nota Anasayfası | En Yeni Şarkılar | En Popüler Şarkılar | Akor Cetveli

Bilgiler
 
Seslendiren ve Şarkı: Neşet Ertaş - Neredesin Sen
Biçim: TAB - HİÇBİRİ
Tarih: 20 Kasım 2018 Salı
Gönderen: El_Gitaroo
Toplam Okuyan: 0 kişi
Bu Ay Okuyan: 0 kişi
Bu Hafta Okuyan: 0 kişi
 
Beğendiniz mi? Neredesin Sen Tab sayfasını Şimdi paylaşın:

Neşet Ertaş - Neredesin Sen - Tab

  (versiyon 2)
Puanlama:
 (2 kişi)

Neredesin Sen şarkısının diğer versiyonlarına bakın >>

Metin boyutu: ( + Büyült ) ( - Küçült)   

   C                    Em  C                   Em
E---0-0-0-1-0----------0-----0-0-0-1----------0------------------------------------I
B------------3--1-1-1-3-------------3--1-1-1-3-------------------------------------I
G----------------------------------------------------------------------------------I  2 Defa
D----------------------------------------------------------------------------------I
A----------------------------------------------------------------------------------I
E----------------------------------------------------------------------------------I

   Am        Em        F        Em         F         Em         Em          Em
E------------------------------------------------------------------------1-0-------I
B----1-1-1-3---0-0-0-1--------------0-0-0-1-------------------------1-0------------I
G------------------------2-2-2-4--------------2-2-2-4----0-0-0-2--------2----------I
D----------------------------------------------------------------------------------I
A----------------------------------------------------------------------------------I
E----------------------------------------------------------------------------------I


En sonunu     C Dm   Em             şeklindede bitirebilirsiniz. Ben Öyle yapıyorum...
           E-------1--------I
           B----------------I
           G----------------I
           D----------------I
           A----------------I
           E----------------I
Neredesin Sen Tab, AkorMerkezi.com'da yayınlanmıştır.
http://www.akormerkezi.com


İçerik Kısa Linki:


Beğendiniz mi? Neredesin Sen Tab sayfasını Şimdi paylaşın:



Neredesin Sen Tab için Komoçotoko'dan Gelenler
Aramalar: neredesin sen tab
Neşet Ertaş - Neredesin Sen için Kullanıcı Görüşleri

Henüz buraya yazan çizen olmamış. Yorum yapmak için buraya tıklayabilirsiniz.


Siz de Görüş Bildirin

Yorum yazma alanı Akor Merkezi üyelerine özel bir bölümdür. (Giriş Yap / Üye Ol / Şifremi Hatırlat)


Anket
tremolo soruyor:
The Beatles'ın Hangi Parçasını Dinlemekten Daha Çok Haz Alırsınız?













Sonuçlar | Sonuçlar & Yorumlar
Yeni Anket | Anketler



AkorMerkezi.com © 2022
Gizlilik Politikası - Kullanım Koşulları - Kurallar - Son Yorumlar - Rastgele

GitarAkor.com kolonisidir. Derleme 0,06 saniye.