Akor Tab Söz Çeviri Anasayfası
Akor|Tab|Söz|Nota Arşivi
Gitar Akorları | Tab,Söz ve Nota Anasayfası | En Yeni Şarkılar | En Popüler Şarkılar | Akor Cetveli

Bilgiler
 
Seslendiren ve Şarkı: Nirvana - Rape Me
Biçim: Bass Tab, Bass Gitar Tab -
Tarih: 18 Ocak 2004 Pazar
Gönderen: 51374
Toplam Okuyan: 3.017 kişi
Bu Ay Okuyan: 21 kişi
Bu Hafta Okuyan: 4 kişi
 
Beğendiniz mi? Rape Me Bass Tab sayfasını Şimdi paylaşın:

Nirvana - Rape Me - Bass Tab


Puanlama:
 (0 kişi)

Rape Me şarkısının diğer versiyonlarına bakın >>

Metin boyutu: ( + Büyült ) ( - Küçült)   
RAPE ME

Kıta:
distortion lı bölüme kadar bass yok

G-------------------------------------------|
D-------------------------------------------|
A-0--0--0-0-0-3-3-3-------------------------|
E------------------------0--0--0-0-0-3-3-3--|

Nakarat:

G-1-1--4-4------------|
D----------1-1--4-4---|
A---------------------|
E---------------------| 

Ahanda bu kadar.
Rape Me Bass Tab, AkorMerkezi.com'da yayınlanmıştır.
http://www.akormerkezi.com


İçerik Kısa Linki:


Beğendiniz mi? Rape Me Bass Tab sayfasını Şimdi paylaşın:


Rape Me Bass Tab için Komoçotoko'dan Gelenler
Aramalar: nirvana şarkıları bas gitar, Çok baslı x rappe indir, nirvana, rape me tab bass gitar notalari, rape me classical guitar tab, rape me bass, rape, the rape gp3, Tab nirvana, Tecavuz gp3
Nirvana - Rape Me için Kullanıcı Görüşleri

<font class="liste_yorum"><font class="b1"> </font>"../../uyeler.asp?section=member_details&amp;id=85809" title="Hakkındaki bilgileri oku, mesaj yolla, arkadaş listene ekle.">metallboy</a></font> <br/>
kardeşim farketiysen bu&nbsp; bass ...<br/>


Bu Yoruma Cevap Ver
bforbastard | 21 Haziran 2008 Cumartesi 22:46
abi pek olmamış yaa çok basit yapmışın intro bi kere şöyle olcak:

----------------------------------------------------
-----------------------------------------------------------------------------------0--0--0--x--x----
---2---2--x--x--x--x------5---5----5----5--x--x------------------------------0--0--0--x--x----
---2---2--x--x--x--x------5---5----5----5--x--x------2--2--x--x--x--x-----0--0--0--x--x----
--------------------------3----3----3----3---x--x-------2--2--x--x--x--x-----0--0--0--x--x----
-----------------------------------------------------------------------------------0--0--0--x--x----


Bu Yoruma Cevap Ver
metallboy | 26 Şubat 2006 Pazar 01:28


Siz de Görüş Bildirin

Yorum yazma alanı Akor Merkezi üyelerine özel bir bölümdür. (Giriş Yap / Üye Ol / Şifremi Hatırlat)


Anket
enriquette soruyor:
Enrique İglesias Hayranı Mısın?









Sonuçlar | Sonuçlar & Yorumlar
Yeni Anket | Anketler



AkorMerkezi.com © 2022
Gizlilik Politikası - Kullanım Koşulları - Kurallar - Son Yorumlar - Rastgele

GitarAkor.com kolonisidir. Derleme 0,03 saniye.