Akor Tab Söz Çeviri Anasayfası
Akor|Tab|Söz|Nota Arşivi
Gitar Akorları | Tab,Söz ve Nota Anasayfası | En Yeni Şarkılar | En Popüler Şarkılar | Akor Cetveli

Bilgiler
 
Seslendiren ve Şarkı: Ogün Sanlısoy - Düşmez Kalkmaz
Biçim: Bass Tab, Bass Gitar Tab - HİÇBİRİ
Tarih: 7 Mayıs 2009 Perşembe
Gönderen: _bascı_
Toplam Okuyan: 6.776 kişi
Bu Ay Okuyan: 35 kişi
Bu Hafta Okuyan: 6 kişi
 
Beğendiniz mi? Düşmez Kalkmaz Bass Tab sayfasını Şimdi paylaşın:

Ogün Sanlısoy - Düşmez Kalkmaz - Bass Tab


Puanlama:
 (2 kişi)

Düşmez Kalkmaz şarkısının diğer versiyonlarına bakın >>

Metin boyutu: ( + Büyült ) ( - Küçült)   
                      DÜŞMEZ KALKMAZ


G----------------------------------------------------------
D----------------------------------------------------------
A---------------------------------------------------------- X2
E-2-2-2-3-0-2-0-2-2-2-5-0-2-0-2-2-2-3-0-2-0-2-2-0-2-0-2-0--

  İNTRO

G--------------------------------------------------
D--------------------------------------------------
A-------------------------------------------------- X4
E-2-0-2-0-2-0-22-0-2-0-2-0-2-0-2-0-2-0-3-3-0-2-3-0-

GİRİŞTEKİ SÖZLER

G--------------------------------------------------------------------------------
D----------4-5--4-5-4-2-------4---4-2------------------4-5-4h5x8kere-4-4-2-------
A-2--2-4-5--------------5-4-----------5-4-2---2--2-4-5---------------------5-4-2- 
E--------------------------------------------------------------------------------

   SORSAM.......
G----------------------------------------------------------------------------
D----------4-5--4-5-4-2-------4---4-2------------------4-5-4h5x8kere-4-4-2-4- 
A-2--2-4-5--------------5-4-----------5-4-2---2--2-4-5-----------------------
E----------------------------------------------------------------------------

G-----------
D-----------
A-----------
E-2----3--0-

NAKARATTAN ÖNCEKİ MİNİK GEÇİŞ


G---------------------------------------------------------------
D---------------------------------------------------------------
A--------------------------------------------------------------- X4
E-2-0-2-0-2-0-2-0-3-0-3-0-3-0-3-0-0-0-0-0-0-0-0-0-2-2-2-2-2-3-0-

NAKARAT


G----------------------------------------------------------
D----------------------------------------------------------
A---------------------------------------------------------- X2
E-2-2-2-3-0-2-0-2-2-2-5-0-2-0-2-2-2-3-0-2-0-2-2-0-2-0-2-0--

  İNTRO

G--------------------------------------------------
D--------------------------------------------------
A-------------------------------------------------- X4
E-2-0-2-0-2-0-22-0-2-0-2-0-2-0-2-0-2-0-3-3-0-2-3-0-

İKİNCİ KISIM SÖZLER

G--------------------------------------------------------------------------------
D----------4-5--4-5-4-2-------4---4-2------------------4-5-4h5x8kere-4-4-2-------
A-2--2-4-5--------------5-4-----------5-4-2---2--2-4-5---------------------5-4-2- 
E--------------------------------------------------------------------------------

   SORSAM.......
G----------------------------------------------------------------------------
D----------4-5--4-5-4-2-------4---4-2------------------4-5-4h5x8kere-4-4-2-4- 
A-2--2-4-5--------------5-4-----------5-4-2---2--2-4-5-----------------------
E----------------------------------------------------------------------------

G-----------
D-----------
A-----------
E-2----3--0-

NAKARATTAN ÖNCEKİ MİNİK GEÇİŞ


G---------------------------------------------------------------
D---------------------------------------------------------------
A--------------------------------------------------------------- X4
E-2-0-2-0-2-0-2-0-3-0-3-0-3-0-3-0-0-0-0-0-0-0-0-0-2-2-2-2-2-3-0-

NAKARAT


G------------------------------------------------------------------------------------
D------------------------------------------------------------------------------------
A---------------------------------------------22-2-2-0-2-----------------------------
E-0-2-2-0--2-0-2-2-0--2-0-2-2-0--2-33-3-3-2-3-----------33-3-3-2-3-33-3-3-2-3-22-0-2-

GİTAR SOLO KISMI X2

SONRASI MALUM YAVAŞ KISIM E-----2-3-0

NAKARAT
FİNAL İNTROSU GİRİŞTEKİ İNTRO
















Düşmez Kalkmaz Bass Tab, AkorMerkezi.com'da yayınlanmıştır.
http://www.akormerkezi.com


İçerik Kısa Linki:


Beğendiniz mi? Düşmez Kalkmaz Bass Tab sayfasını Şimdi paylaşın:


Düşmez Kalkmaz Bass Tab için Komoçotoko'dan Gelenler
Aramalar: saydim bas gitar tab, bass tab arşivi, ogün şanlısoy saydım bas gitar akor, bilmece bass gitar, düşmez kalkmaz bass tab, saydım bas gitar akorları, ogun uğur saydım gitar uzerinde akorları, düşmez kalkmaz bas tab, ögün sanlısoyun bas gitaristi, saydim bas gitar akor
Ogün Sanlısoy - Düşmez Kalkmaz için Kullanıcı Görüşleri

çok doğru olmuş ellerine sağlık


Bu Yoruma Cevap Ver
ca4n | 10 Aralık 2012 Pazartesi 21:37


Siz de Görüş Bildirin

Yorum yazma alanı Akor Merkezi üyelerine özel bir bölümdür. (Giriş Yap / Üye Ol / Şifremi Hatırlat)


Anket
RocknRollBabe soruyor:
Hangi tür müzik dinlersiniz ?












Sonuçlar | Sonuçlar & Yorumlar
Yeni Anket | Anketler



AkorMerkezi.com © 2022
Gizlilik Politikası - Kullanım Koşulları - Kurallar - Son Yorumlar - Rastgele

GitarAkor.com kolonisidir. Derleme 0,03 saniye.